  0
SECTION
  2
HEADER
  9
$ACADVER
  1
AC1015
  9
$ACADMAINTVER
 70
     6
  9
$DWGCODEPAGE
  3
ANSI_1254
  9
$INSBASE
 10
0.0
 20
0.0
 30
0.0
  9
$EXTMIN
 10
0.0
 20
0.0
 30
0.0
  9
$EXTMAX
 10
279.4
 20
215.9
 30
0.0
  9
$LIMMIN
 10
0.0
 20
0.0
  9
$LIMMAX
 10
279.4
 20
215.9
  9
$ORTHOMODE
 70
     0
  9
$REGENMODE
 70
     1
  9
$FILLMODE
 70
     1
  9
$QTEXTMODE
 70
     0
  9
$MIRRTEXT
 70
     1
  9
$LTSCALE
 40
1.0
  9
$ATTMODE
 70
     1
  9
$TEXTSIZE
 40
3.5
  9
$TRACEWID
 40
1.0
  9
$TEXTSTYLE
  7
Standard
  9
$CLAYER
  8
0
  9
$CELTYPE
  6
ByLayer
  9
$CECOLOR
 62
   256
  9
$CELTSCALE
 40
1.0
  9
$DISPSILH
 70
     0
  9
$DIMSCALE
 40
1.0
  9
$DIMASZ
 40
3.5
  9
$DIMEXO
 40
1.0
  9
$DIMDLI
 40
3.75
  9
$DIMRND
 40
0.0
  9
$DIMDLE
 40
0.0
  9
$DIMEXE
 40
1.0
  9
$DIMTP
 40
0.0
  9
$DIMTM
 40
0.0
  9
$DIMTXT
 40
3.5
  9
$DIMCEN
 40
2.5
  9
$DIMTSZ
 40
0.0
  9
$DIMTOL
 70
     0
  9
$DIMLIM
 70
     0
  9
$DIMTIH
 70
     1
  9
$DIMTOH
 70
     1
  9
$DIMSE1
 70
     0
  9
$DIMSE2
 70
     0
  9
$DIMTAD
 70
     1
  9
$DIMZIN
 70
     0
  9
$DIMBLK
  1

  9
$DIMASO
 70
     1
  9
$DIMSHO
 70
     1
  9
$DIMPOST
  1

  9
$DIMAPOST
  1

  9
$DIMALT
 70
     0
  9
$DIMALTD
 70
     3
  9
$DIMALTF
 40
0.0393700787
  9
$DIMLFAC
 40
1.0
  9
$DIMTOFL
 70
     1
  9
$DIMTVP
 40
0.0
  9
$DIMTIX
 70
     0
  9
$DIMSOXD
 70
     0
  9
$DIMSAH
 70
     0
  9
$DIMBLK1
  1

  9
$DIMBLK2
  1

  9
$DIMSTYLE
  2
ISO-25
  9
$DIMCLRD
 70
     0
  9
$DIMCLRE
 70
     0
  9
$DIMCLRT
 70
     0
  9
$DIMTFAC
 40
1.0
  9
$DIMGAP
 40
1.524
  9
$DIMJUST
 70
     0
  9
$DIMSD1
 70
     0
  9
$DIMSD2
 70
     0
  9
$DIMTOLJ
 70
     0
  9
$DIMTZIN
 70
     0
  9
$DIMALTZ
 70
     0
  9
$DIMALTTZ
 70
     0
  9
$DIMUPT
 70
     0
  9
$DIMDEC
 70
     2
  9
$DIMTDEC
 70
     2
  9
$DIMALTU
 70
     2
  9
$DIMALTTD
 70
     3
  9
$DIMTXSTY
  7
Standard
  9
$DIMAUNIT
 70
     0
  9
$DIMADEC
 70
     2
  9
$DIMALTRND
 40
0.0
  9
$DIMAZIN
 70
     0
  9
$DIMDSEP
 70
    44
  9
$DIMATFIT
 70
     3
  9
$DIMFRAC
 70
     0
  9
$DIMLDRBLK
  1

  9
$DIMLUNIT
 70
     2
  9
$DIMLWD
 70
    -2
  9
$DIMLWE
 70
    -2
  9
$DIMTMOVE
 70
     0
  9
$LUNITS
 70
     2
  9
$LUPREC
 70
     2
  9
$SKETCHINC
 40
1.0
  9
$FILLETRAD
 40
10.0
  9
$AUNITS
 70
     0
  9
$AUPREC
 70
     2
  9
$MENU
  1
.
  9
$ELEVATION
 40
0.0
  9
$PELEVATION
 40
0.0
  9
$THICKNESS
 40
0.0
  9
$LIMCHECK
 70
     0
  9
$CHAMFERA
 40
0.0
  9
$CHAMFERB
 40
0.0
  9
$CHAMFERC
 40
0.0
  9
$CHAMFERD
 40
0.0
  9
$SKPOLY
 70
     0
  9
$TDCREATE
 40
2460346.67071963
  9
$TDUCREATE
 40
2460346.54571963
  9
$TDUPDATE
 40
2460346.670719815
  9
$TDUUPDATE
 40
2460346.545719815
  9
$TDINDWG
 40
0.0000000116
  9
$TDUSRTIMER
 40
0.0000000116
  9
$USRTIMER
 70
     1
  9
$ANGBASE
 50
0.0
  9
$ANGDIR
 70
     0
  9
$PDMODE
 70
     0
  9
$PDSIZE
 40
-1.0
  9
$PLINEWID
 40
0.0
  9
$SPLFRAME
 70
     0
  9
$SPLINETYPE
 70
     6
  9
$SPLINESEGS
 70
     8
  9
$HANDSEED
  5
132
  9
$SURFTAB1
 70
     6
  9
$SURFTAB2
 70
     6
  9
$SURFTYPE
 70
     6
  9
$SURFU
 70
     6
  9
$SURFV
 70
     6
  9
$UCSBASE
  2

  9
$UCSNAME
  2

  9
$UCSORG
 10
0.0
 20
0.0
 30
0.0
  9
$UCSXDIR
 10
1.0
 20
0.0
 30
0.0
  9
$UCSYDIR
 10
0.0
 20
1.0
 30
0.0
  9
$UCSORTHOREF
  2

  9
$UCSORTHOVIEW
 70
     0
  9
$UCSORGTOP
 10
0.0
 20
0.0
 30
0.0
  9
$UCSORGBOTTOM
 10
0.0
 20
0.0
 30
0.0
  9
$UCSORGLEFT
 10
0.0
 20
0.0
 30
0.0
  9
$UCSORGRIGHT
 10
0.0
 20
0.0
 30
0.0
  9
$UCSORGFRONT
 10
0.0
 20
0.0
 30
0.0
  9
$UCSORGBACK
 10
0.0
 20
0.0
 30
0.0
  9
$PUCSBASE
  2

  9
$PUCSNAME
  2

  9
$PUCSORG
 10
0.0
 20
0.0
 30
0.0
  9
$PUCSXDIR
 10
1.0
 20
0.0
 30
0.0
  9
$PUCSYDIR
 10
0.0
 20
1.0
 30
0.0
  9
$PUCSORTHOREF
  2

  9
$PUCSORTHOVIEW
 70
     0
  9
$PUCSORGTOP
 10
0.0
 20
0.0
 30
0.0
  9
$PUCSORGBOTTOM
 10
0.0
 20
0.0
 30
0.0
  9
$PUCSORGLEFT
 10
0.0
 20
0.0
 30
0.0
  9
$PUCSORGRIGHT
 10
0.0
 20
0.0
 30
0.0
  9
$PUCSORGFRONT
 10
0.0
 20
0.0
 30
0.0
  9
$PUCSORGBACK
 10
0.0
 20
0.0
 30
0.0
  9
$USERI1
 70
     0
  9
$USERI2
 70
     0
  9
$USERI3
 70
     0
  9
$USERI4
 70
     0
  9
$USERI5
 70
     0
  9
$USERR1
 40
0.0
  9
$USERR2
 40
0.0
  9
$USERR3
 40
0.0
  9
$USERR4
 40
0.0
  9
$USERR5
 40
0.0
  9
$WORLDVIEW
 70
     1
  9
$SHADEDGE
 70
     3
  9
$SHADEDIF
 70
    70
  9
$TILEMODE
 70
     1
  9
$MAXACTVP
 70
    64
  9
$PINSBASE
 10
0.0
 20
0.0
 30
0.0
  9
$PLIMCHECK
 70
     0
  9
$PEXTMIN
 10
1.0000000000E+20
 20
1.0000000000E+20
 30
1.0000000000E+20
  9
$PEXTMAX
 10
-1.0000000000E+20
 20
-1.0000000000E+20
 30
-1.0000000000E+20
  9
$PLIMMIN
 10
0.0
 20
0.0
  9
$PLIMMAX
 10
420.0
 20
297.0
  9
$UNITMODE
 70
     0
  9
$VISRETAIN
 70
     1
  9
$PLINEGEN
 70
     0
  9
$PSLTSCALE
 70
     1
  9
$TREEDEPTH
 70
  3020
  9
$CMLSTYLE
  2
Standard
  9
$CMLJUST
 70
     0
  9
$CMLSCALE
 40
20.0
  9
$PROXYGRAPHICS
 70
     1
  9
$MEASUREMENT
 70
     1
  9
$CELWEIGHT
370
    -1
  9
$ENDCAPS
280
     0
  9
$JOINSTYLE
280
     0
  9
$LWDISPLAY
290
     1
  9
$INSUNITS
 70
     4
  9
$HYPERLINKBASE
  1

  9
$STYLESHEET
  1

  9
$XEDIT
290
     1
  9
$CEPSNTYPE
380
     0
  9
$PSTYLEMODE
290
     1
  9
$FINGERPRINTGUID
  2
{6a48c831-0b69-4b9f-b9f5-655f4c0f2c92}
  9
$VERSIONGUID
  2
{FAEB1C32-E019-11D5-929B-00C0DF256EC4}
  9
$EXTNAMES
290
     1
  9
$PSVPSCALE
 40
0.0
  9
$OLESTARTUP
290
     0
  0
ENDSEC
  0
SECTION
  2
CLASSES
  0
CLASS
  1
ACDBDICTIONARYWDFLT
  2
AcDbDictionaryWithDefault
  3
ObjectDBX Classes
 90
        0
280
     0
281
     0
  0
CLASS
  1
VISUALSTYLE
  2
AcDbVisualStyle
  3
ObjectDBX Classes
 90
     4095
280
     0
281
     0
  0
CLASS
  1
MATERIAL
  2
AcDbMaterial
  3
ObjectDBX Classes
 90
     1153
280
     0
281
     0
  0
CLASS
  1
SCALE
  2
AcDbScale
  3
ObjectDBX Classes
 90
     1153
280
     0
281
     0
  0
CLASS
  1
TABLESTYLE
  2
AcDbTableStyle
  3
ObjectDBX Classes
 90
     4095
280
     0
281
     0
  0
CLASS
  1
MLEADERSTYLE
  2
AcDbMLeaderStyle
  3
ACDB_MLEADERSTYLE_CLASS
 90
     4095
280
     0
281
     0
  0
CLASS
  1
SUN
  2
AcDbSun
  3
SCENEOE
 90
     1153
280
     0
281
     0
  0
CLASS
  1
ACDBPLACEHOLDER
  2
AcDbPlaceHolder
  3
ObjectDBX Classes
 90
        0
280
     0
281
     0
  0
CLASS
  1
LAYOUT
  2
AcDbLayout
  3
ObjectDBX Classes
 90
        0
280
     0
281
     0
  0
ENDSEC
  0
SECTION
  2
TABLES
  0
TABLE
  2
VPORT
  5
8
330
0
100
AcDbSymbolTable
 70
     1
  0
VPORT
  5
29
330
8
100
AcDbSymbolTableRecord
100
AcDbViewportTableRecord
  2
*Active
 70
     0
 10
0.0
 20
0.0
 11
1.0
 21
1.0
 12
139.7
 22
107.95
 13
0.0
 23
0.0
 14
10.0
 24
10.0
 15
10.0
 25
10.0
 16
0.0
 26
0.0
 36
1.0
 17
0.0
 27
0.0
 37
0.0
 40
215.9
 41
1.2941176471
 42
50.0
 43
0.0
 44
0.0
 50
0.0
 51
0.0
 71
     0
 72
  2000
 73
     1
 74
     3
 75
     0
 76
     0
 77
     0
 78
     0
281
     0
 65
     1
110
0.0
120
0.0
130
0.0
111
1.0
121
0.0
131
0.0
112
0.0
122
1.0
132
0.0
 79
     0
146
0.0
  0
ENDTAB
  0
TABLE
  2
LTYPE
  5
5
330
0
100
AcDbSymbolTable
 70
     6
  0
LTYPE
  5
14
330
5
100
AcDbSymbolTableRecord
100
AcDbLinetypeTableRecord
  2
ByBlock
 70
     0
  3

 72
    65
 73
     0
 40
0.0
  0
LTYPE
  5
15
330
5
100
AcDbSymbolTableRecord
100
AcDbLinetypeTableRecord
  2
ByLayer
 70
     0
  3

 72
    65
 73
     0
 40
0.0
  0
LTYPE
  5
16
330
5
100
AcDbSymbolTableRecord
100
AcDbLinetypeTableRecord
  2
Continuous
 70
     0
  3
Solid line
 72
    65
 73
     0
 40
0.0
  0
LTYPE
  5
6E
330
5
100
AcDbSymbolTableRecord
100
AcDbLinetypeTableRecord
  2
HIDDEN
 70
     0
  3
Hidden __ __ __ __ __ __ __ __ __ __ __ __ __ __
 72
    65
 73
     2
 40
1.905
 49
1.27
 74
     0
 49
-0.635
 74
     0
  0
LTYPE
  5
6F
330
5
100
AcDbSymbolTableRecord
100
AcDbLinetypeTableRecord
  2
PHANTOM
 70
     0
  3
Phantom ______  __  __  ______  __  __  ______
 72
    65
 73
     6
 40
12.7
 49
6.35
 74
     0
 49
-1.27
 74
     0
 49
1.27
 74
     0
 49
-1.27
 74
     0
 49
1.27
 74
     0
 49
-1.27
 74
     0
  0
LTYPE
  5
70
330
5
100
AcDbSymbolTableRecord
100
AcDbLinetypeTableRecord
  2
CENTER
 70
     0
  3
Center ____ _ ____ _ ____ _ ____ _ ____ _ ____
 72
    65
 73
     4
 40
10.16
 49
6.35
 74
     0
 49
-1.27
 74
     0
 49
1.27
 74
     0
 49
-1.27
 74
     0
  0
LTYPE
  5
71
330
5
100
AcDbSymbolTableRecord
100
AcDbLinetypeTableRecord
  2
CENTERX2
 70
     0
  3
Center (2x) ________  __  ________  __  _____
 72
    65
 73
     4
 40
20.32
 49
12.7
 74
     0
 49
-2.54
 74
     0
 49
2.54
 74
     0
 49
-2.54
 74
     0
  0
LTYPE
  5
72
330
5
100
AcDbSymbolTableRecord
100
AcDbLinetypeTableRecord
  2
DOT2
 70
     0
  3
Dot (.5x) ........................................
 72
    65
 73
     2
 40
0.635
 49
0.0
 74
     0
 49
-0.635
 74
     0
  0
ENDTAB
  0
TABLE
  2
LAYER
  5
2
330
0
100
AcDbSymbolTable
 70
    17
  0
LAYER
  5
10
330
2
100
AcDbSymbolTableRecord
100
AcDbLayerTableRecord
  2
0
 70
     0
 62
     7
  6
Continuous
370
    -3
390
F
  0
LAYER
  5
73
330
2
100
AcDbSymbolTableRecord
100
AcDbLayerTableRecord
  2
FORMAT
 70
     0
 62
     7
  6
Continuous
370
    -3
390
F
  0
LAYER
  5
74
330
2
100
AcDbSymbolTableRecord
100
AcDbLayerTableRecord
  2
YARDIMCI_GEOMETRI
 70
     0
 62
    -6
  6
Continuous
290
     0
370
    -3
390
F
  0
LAYER
  5
75
330
2
100
AcDbSymbolTableRecord
100
AcDbLayerTableRecord
  2
SAYFA_CERCEVESI
 70
     0
 62
     7
  6
Continuous
370
    25
390
F
  0
LAYER
  5
76
330
2
100
AcDbSymbolTableRecord
100
AcDbLayerTableRecord
  2
ANTET
 70
     0
 62
     7
  6
Continuous
370
    -3
390
F
  0
LAYER
  5
77
330
2
100
AcDbSymbolTableRecord
100
AcDbLayerTableRecord
  2
OLCU
 70
     0
 62
   150
  6
Continuous
370
    -3
390
F
  0
LAYER
  5
78
330
2
100
AcDbSymbolTableRecord
100
AcDbLayerTableRecord
  2
METIN
 70
     0
 62
    96
  6
Continuous
370
    -3
390
F
  0
LAYER
  5
79
330
2
100
AcDbSymbolTableRecord
100
AcDbLayerTableRecord
  2
BALON
 70
     0
 62
     5
  6
Continuous
370
    -3
390
F
  0
LAYER
  5
7A
330
2
100
AcDbSymbolTableRecord
100
AcDbLayerTableRecord
  2
VURGU
 70
     0
 62
     7
  6
Continuous
370
    -3
390
F
  0
LAYER
  5
7B
330
2
100
AcDbSymbolTableRecord
100
AcDbLayerTableRecord
  2
SILIK
 70
     0
 62
     7
  6
Continuous
370
    -3
390
F
  0
LAYER
  5
7C
330
2
100
AcDbSymbolTableRecord
100
AcDbLayerTableRecord
  2
MODEL
 70
     0
 62
     7
  6
Continuous
370
    -3
390
F
  0
LAYER
  5
7D
330
2
100
AcDbSymbolTableRecord
100
AcDbLayerTableRecord
  2
DETAYLANDıRMA
 70
     0
 62
   190
  6
Continuous
370
    -3
390
F
  0
LAYER
  5
7E
330
2
100
AcDbSymbolTableRecord
100
AcDbLayerTableRecord
  2
TOLERANS
 70
     0
 62
   230
  6
Continuous
370
    -3
390
F
  0
LAYER
  5
7F
330
2
100
AcDbSymbolTableRecord
100
AcDbLayerTableRecord
  2
MERKEZ_CIZGILERI
 70
     0
 62
    30
  6
Continuous
370
    -3
390
F
  0
LAYER
  5
80
330
2
100
AcDbSymbolTableRecord
100
AcDbLayerTableRecord
  2
KESIT-DETAY_CIZGILERI
 70
     0
 62
     7
  6
Continuous
370
    -3
390
F
  0
LAYER
  5
81
330
2
100
AcDbSymbolTableRecord
100
AcDbLayerTableRecord
  2
\U+041E\U+0421\U+0415\U+0412\U+042B\U+0415
 70
     0
 62
     7
  6
Continuous
370
    -3
390
F
  0
LAYER
  5
82
330
2
100
AcDbSymbolTableRecord
100
AcDbLayerTableRecord
  2
\U+0412\U+041E\U+0414\U+042F\U+041D\U+042B\U+0415_\U+0417\U+041D\U+0410\U+041A\U+0418
 70
     0
 62
    11
  6
Continuous
370
    -3
390
F
  0
ENDTAB
  0
TABLE
  2
STYLE
  5
3
330
0
100
AcDbSymbolTable
 70
     1
  0
STYLE
  5
11
330
3
100
AcDbSymbolTableRecord
100
AcDbTextStyleTableRecord
  2
Standard
 70
     0
 40
0.0
 41
1.0
 50
0.0
 71
     0
 42
3.5
  3
txt
  4

  0
ENDTAB
  0
TABLE
  2
VIEW
  5
6
330
0
100
AcDbSymbolTable
 70
     0
  0
ENDTAB
  0
TABLE
  2
UCS
  5
7
330
0
100
AcDbSymbolTable
 70
     0
  0
ENDTAB
  0
TABLE
  2
APPID
  5
9
330
0
100
AcDbSymbolTable
 70
     1
  0
APPID
  5
12
330
9
100
AcDbSymbolTableRecord
100
AcDbRegAppTableRecord
  2
ACAD
 70
     0
  0
ENDTAB
  0
TABLE
  2
DIMSTYLE
  5
A
330
0
100
AcDbSymbolTable
 70
     1
100
AcDbDimStyleTable
  0
DIMSTYLE
105
27
330
A
100
AcDbSymbolTableRecord
100
AcDbDimStyleTableRecord
  2
ISO-25
 70
     0
 41
2.5
 42
0.625
 43
3.75
 44
1.25
 73
     0
 74
     0
 77
     1
 78
     8
140
2.5
141
2.5
143
0.0393700787
147
0.625
171
     3
172
     1
178
     0
271
     2
272
     2
274
     3
278
    44
283
     0
284
     8
340
11
  0
ENDTAB
  0
TABLE
  2
BLOCK_RECORD
  5
1
330
0
100
AcDbSymbolTable
 70
     4
  0
BLOCK_RECORD
  5
1F
330
1
100
AcDbSymbolTableRecord
100
AcDbBlockTableRecord
  2
*Model_Space
340
22
  0
BLOCK_RECORD
  5
1B
330
1
100
AcDbSymbolTableRecord
100
AcDbBlockTableRecord
  2
*Paper_Space
340
1E
  0
BLOCK_RECORD
  5
23
330
1
100
AcDbSymbolTableRecord
100
AcDbBlockTableRecord
  2
*Paper_Space0
340
26
  0
BLOCK_RECORD
  5
8E
330
1
100
AcDbSymbolTableRecord
100
AcDbBlockTableRecord
  2
SW_CENTERMARKSYMBOL_0
340
0
102
{BLKREFS
331
99
102
}
  0
BLOCK_RECORD
  5
C8
330
1
100
AcDbSymbolTableRecord
100
AcDbBlockTableRecord
  2
SW_CENTERMARKSYMBOL_1
340
0
102
{BLKREFS
331
D3
102
}
  0
BLOCK_RECORD
  5
D4
330
1
100
AcDbSymbolTableRecord
100
AcDbBlockTableRecord
  2
SW_CENTERMARKSYMBOL_2
340
0
102
{BLKREFS
331
DF
102
}
  0
ENDTAB
  0
ENDSEC
  0
SECTION
  2
BLOCKS
  0
BLOCK
  5
20
330
1F
100
AcDbEntity
  8
0
100
AcDbBlockBegin
  2
*Model_Space
 70
     0
 10
0.0
 20
0.0
 30
0.0
  3
*Model_Space
  1

  0
ENDBLK
  5
21
330
1F
100
AcDbEntity
  8
0
100
AcDbBlockEnd
  0
BLOCK
  5
1C
330
1B
100
AcDbEntity
 67
     1
  8
0
100
AcDbBlockBegin
  2
*Paper_Space
 70
     0
 10
0.0
 20
0.0
 30
0.0
  3
*Paper_Space
  1

  0
ENDBLK
  5
1D
330
1B
100
AcDbEntity
 67
     1
  8
0
100
AcDbBlockEnd
  0
BLOCK
  5
24
330
23
100
AcDbEntity
  8
0
100
AcDbBlockBegin
  2
*Paper_Space0
 70
     0
 10
0.0
 20
0.0
 30
0.0
  3
*Paper_Space0
  1

  0
ENDBLK
  5
25
330
23
100
AcDbEntity
  8
0
100
AcDbBlockEnd
  0
BLOCK
  5
8F
330
8E
100
AcDbEntity
  8
0
100
AcDbBlockBegin
  2
SW_CENTERMARKSYMBOL_0
 70
     0
 10
0.0
 20
0.0
 30
0.0
  3
SW_CENTERMARKSYMBOL_0
  1

  0
LINE
  5
91
330
8E
100
AcDbEntity
  8
FORMAT
 62
     0
100
AcDbLine
 10
0.0
 20
0.0
 30
0.0
 11
0.0
 21
2.5
 31
0.0
  0
LINE
  5
92
330
8E
100
AcDbEntity
  8
FORMAT
 62
     0
100
AcDbLine
 10
0.0
 20
0.0
 30
0.0
 11
-2.5
 21
0.0
 31
0.0
  0
LINE
  5
93
330
8E
100
AcDbEntity
  8
FORMAT
 62
     0
100
AcDbLine
 10
0.0
 20
0.0
 30
0.0
 11
0.0
 21
-2.5
 31
0.0
  0
LINE
  5
94
330
8E
100
AcDbEntity
  8
FORMAT
 62
     0
100
AcDbLine
 10
0.0
 20
0.0
 30
0.0
 11
2.5
 21
0.0
 31
0.0
  0
LINE
  5
95
330
8E
100
AcDbEntity
  8
FORMAT
 62
     0
100
AcDbLine
 10
0.0
 20
5.0
 30
0.0
 11
0.0
 21
33.5
 31
0.0
  0
LINE
  5
96
330
8E
100
AcDbEntity
  8
FORMAT
 62
     0
100
AcDbLine
 10
-5.0
 20
0.0
 30
0.0
 11
-33.5
 21
0.0
 31
0.0
  0
LINE
  5
97
330
8E
100
AcDbEntity
  8
FORMAT
 62
     0
100
AcDbLine
 10
0.0
 20
-5.0
 30
0.0
 11
0.0
 21
-33.5
 31
0.0
  0
LINE
  5
98
330
8E
100
AcDbEntity
  8
FORMAT
 62
     0
100
AcDbLine
 10
5.0
 20
0.0
 30
0.0
 11
33.5
 21
0.0
 31
0.0
  0
ENDBLK
  5
90
330
8E
100
AcDbEntity
  8
0
100
AcDbBlockEnd
  0
BLOCK
  5
C9
330
C8
100
AcDbEntity
  8
0
100
AcDbBlockBegin
  2
SW_CENTERMARKSYMBOL_1
 70
     0
 10
0.0
 20
0.0
 30
0.0
  3
SW_CENTERMARKSYMBOL_1
  1

  0
LINE
  5
CB
330
C8
100
AcDbEntity
  8
FORMAT
 62
     0
100
AcDbLine
 10
0.0
 20
0.0
 30
0.0
 11
0.0
 21
2.5
 31
0.0
  0
LINE
  5
CC
330
C8
100
AcDbEntity
  8
FORMAT
 62
     0
100
AcDbLine
 10
0.0
 20
0.0
 30
0.0
 11
-2.5
 21
0.0
 31
0.0
  0
LINE
  5
CD
330
C8
100
AcDbEntity
  8
FORMAT
 62
     0
100
AcDbLine
 10
0.0
 20
0.0
 30
0.0
 11
0.0
 21
-2.5
 31
0.0
  0
LINE
  5
CE
330
C8
100
AcDbEntity
  8
FORMAT
 62
     0
100
AcDbLine
 10
0.0
 20
0.0
 30
0.0
 11
2.5
 21
0.0
 31
0.0
  0
LINE
  5
CF
330
C8
100
AcDbEntity
  8
FORMAT
 62
     0
100
AcDbLine
 10
0.0
 20
5.0
 30
0.0
 11
0.0
 21
9.5
 31
0.0
  0
LINE
  5
D0
330
C8
100
AcDbEntity
  8
FORMAT
 62
     0
100
AcDbLine
 10
-5.0
 20
0.0
 30
0.0
 11
-9.5
 21
0.0
 31
0.0
  0
LINE
  5
D1
330
C8
100
AcDbEntity
  8
FORMAT
 62
     0
100
AcDbLine
 10
0.0
 20
-5.0
 30
0.0
 11
0.0
 21
-9.5
 31
0.0
  0
LINE
  5
D2
330
C8
100
AcDbEntity
  8
FORMAT
 62
     0
100
AcDbLine
 10
5.0
 20
0.0
 30
0.0
 11
9.5
 21
0.0
 31
0.0
  0
ENDBLK
  5
CA
330
C8
100
AcDbEntity
  8
0
100
AcDbBlockEnd
  0
BLOCK
  5
D5
330
D4
100
AcDbEntity
  8
0
100
AcDbBlockBegin
  2
SW_CENTERMARKSYMBOL_2
 70
     0
 10
0.0
 20
0.0
 30
0.0
  3
SW_CENTERMARKSYMBOL_2
  1

  0
LINE
  5
D7
330
D4
100
AcDbEntity
  8
FORMAT
 62
     0
100
AcDbLine
 10
0.0
 20
0.0
 30
0.0
 11
0.0
 21
2.5
 31
0.0
  0
LINE
  5
D8
330
D4
100
AcDbEntity
  8
FORMAT
 62
     0
100
AcDbLine
 10
0.0
 20
0.0
 30
0.0
 11
-2.5
 21
0.0
 31
0.0
  0
LINE
  5
D9
330
D4
100
AcDbEntity
  8
FORMAT
 62
     0
100
AcDbLine
 10
0.0
 20
0.0
 30
0.0
 11
0.0
 21
-2.5
 31
0.0
  0
LINE
  5
DA
330
D4
100
AcDbEntity
  8
FORMAT
 62
     0
100
AcDbLine
 10
0.0
 20
0.0
 30
0.0
 11
2.5
 21
0.0
 31
0.0
  0
LINE
  5
DB
330
D4
100
AcDbEntity
  8
FORMAT
 62
     0
100
AcDbLine
 10
0.0
 20
5.0
 30
0.0
 11
0.0
 21
9.5
 31
0.0
  0
LINE
  5
DC
330
D4
100
AcDbEntity
  8
FORMAT
 62
     0
100
AcDbLine
 10
-5.0
 20
0.0
 30
0.0
 11
-9.5
 21
0.0
 31
0.0
  0
LINE
  5
DD
330
D4
100
AcDbEntity
  8
FORMAT
 62
     0
100
AcDbLine
 10
0.0
 20
-5.0
 30
0.0
 11
0.0
 21
-9.5
 31
0.0
  0
LINE
  5
DE
330
D4
100
AcDbEntity
  8
FORMAT
 62
     0
100
AcDbLine
 10
5.0
 20
0.0
 30
0.0
 11
9.5
 21
0.0
 31
0.0
  0
ENDBLK
  5
D6
330
D4
100
AcDbEntity
  8
0
100
AcDbBlockEnd
  0
ENDSEC
  0
SECTION
  2
ENTITIES
  0
LINE
  5
83
330
1F
100
AcDbEntity
  8
0
  6
Continuous
 62
     7
370
    25
100
AcDbLine
 10
129.1701403815
 20
87.4704961641
 30
0.0
 11
129.1701403815
 21
59.6754170122
 31
0.0
  0
LINE
  5
84
330
1F
100
AcDbEntity
  8
0
  6
Continuous
 62
     7
370
    25
100
AcDbLine
 10
143.1701403815
 20
59.6754170122
 30
0.0
 11
143.1701403815
 21
87.4728537082
 31
0.0
  0
LINE
  5
85
330
1F
100
AcDbEntity
  8
0
  6
Continuous
 62
     7
370
    25
100
AcDbLine
 10
129.1701403815
 20
87.4760792712
 30
0.0
 11
129.1701403815
 21
87.4704961641
 31
0.0
  0
LINE
  5
86
330
1F
100
AcDbEntity
  8
0
  6
Continuous
 62
     7
370
    25
100
AcDbLine
 10
143.1701403815
 20
87.4728537082
 30
0.0
 11
143.1701403815
 21
87.4760792712
 31
0.0
  0
CIRCLE
  5
87
330
1F
100
AcDbEntity
  8
0
  6
Continuous
 62
     7
370
    25
100
AcDbCircle
 10
136.1701403815
 20
117.6754170122
 30
0.0
 40
31.0
  0
CIRCLE
  5
88
330
1F
100
AcDbEntity
  8
0
  6
Continuous
 62
     7
370
    25
100
AcDbCircle
 10
136.1701403815
 20
117.6754170122
 30
0.0
 40
25.0
  0
LINE
  5
89
330
1F
100
AcDbEntity
  8
0
  6
Continuous
 62
     7
370
    25
100
AcDbLine
 10
136.1701403815
 20
59.6754170122
 30
0.0
 11
143.1701403815
 21
59.6754170122
 31
0.0
  0
LINE
  5
8A
330
1F
100
AcDbEntity
  8
0
  6
Continuous
 62
     7
370
    25
100
AcDbLine
 10
129.1701403815
 20
59.6754170122
 30
0.0
 11
136.1701403815
 21
59.6754170122
 31
0.0
  0
CIRCLE
  5
8B
330
1F
100
AcDbEntity
  8
0
  6
Continuous
 62
     7
370
    25
100
AcDbCircle
 10
136.1701403815
 20
117.6754170122
 30
0.0
 40
24.53644255919474
  0
CIRCLE
  5
8C
330
1F
100
AcDbEntity
  8
0
  6
Continuous
 62
     7
370
    25
100
AcDbCircle
 10
136.1701403815
 20
117.6754170122
 30
0.0
 40
20.46355744080525
  0
CIRCLE
  5
8D
330
1F
100
AcDbEntity
  8
0
  6
Continuous
 62
     7
370
    25
100
AcDbCircle
 10
136.1701403815
 20
117.6754170122
 30
0.0
 40
20.0
  0
INSERT
  5
99
330
1F
100
AcDbEntity
  8
FORMAT
 62
     7
100
AcDbBlockReference
  2
SW_CENTERMARKSYMBOL_0
 10
136.1701403815
 20
117.6754170122
 30
0.0
  0
ARC
  5
9A
330
1F
100
AcDbEntity
  8
0
  6
Continuous
 62
     7
370
    25
100
AcDbCircle
 10
18.6009040867
 20
146.6754170122
 30
0.0
 40
2.000000000000028
100
AcDbArc
 50
50.1944289077
 51
90.0
  0
ARC
  5
9B
330
1F
100
AcDbEntity
  8
0
  6
Continuous
 62
     7
370
    25
100
AcDbCircle
 10
18.6009040867
 20
88.6754170122
 30
0.0
 40
2.0
100
AcDbArc
 50
270.0
 51
309.8055710923
  0
LINE
  5
9C
330
1F
100
AcDbEntity
  8
0
  6
Continuous
 62
     7
370
    25
100
AcDbLine
 10
18.6009040867
 20
148.6754170122
 30
0.0
 11
-41.6749960429
 21
148.6754170122
 31
0.0
  0
LINE
  5
9D
330
1F
100
AcDbEntity
  8
0
  6
Continuous
 62
     7
370
    25
100
AcDbLine
 10
-26.6905398557
 20
86.6754170122
 30
0.0
 11
18.6009040867
 21
86.6754170122
 31
0.0
  0
LINE
  5
9E
330
1F
100
AcDbEntity
  8
0
  6
Continuous
 62
     7
370
    25
100
AcDbLine
 10
-41.6749960429
 20
86.6754170122
 30
0.0
 11
-40.6749960429
 21
86.6754170122
 31
0.0
  0
LINE
  5
9F
330
1F
100
AcDbEntity
  8
0
  6
Continuous
 62
     7
370
    25
100
AcDbLine
 10
19.881272886
 20
87.138974453
 30
0.0
 11
24.7687350281
 21
91.2118595714
 31
0.0
  0
LINE
  5
A0
330
1F
100
AcDbEntity
  8
0
  6
Continuous
 62
     7
370
    25
100
AcDbLine
 10
24.7687350281
 20
144.138974453
 30
0.0
 11
19.881272886
 21
148.2118595714
 31
0.0
  0
ARC
  5
A1
330
1F
100
AcDbEntity
  8
0
  6
Continuous
 62
     7
370
    25
100
AcDbCircle
 10
26.0491038274
 20
145.6754170122
 30
0.0
 40
2.0
100
AcDbArc
 50
230.1944289077
 51
270.0
  0
ARC
  5
A2
330
1F
100
AcDbEntity
  8
0
  6
Continuous
 62
     7
370
    25
100
AcDbCircle
 10
26.0491038274
 20
89.6754170122
 30
0.0
 40
2.0
100
AcDbArc
 50
90.0
 51
129.8055710923
  0
LINE
  5
A3
330
1F
100
AcDbEntity
  8
0
  6
Continuous
 62
     7
370
    25
100
AcDbLine
 10
82.3250039571
 20
143.6754170122
 30
0.0
 11
26.0491038274
 21
143.6754170122
 31
0.0
  0
LINE
  5
A4
330
1F
100
AcDbEntity
  8
0
  6
Continuous
 62
     7
370
    25
100
AcDbLine
 10
81.3136862642
 20
91.6754170122
 30
0.0
 11
82.3250039571
 21
91.6754170122
 31
0.0
  0
LINE
  5
A5
330
1F
100
AcDbEntity
  8
0
  6
Continuous
 62
     7
370
    25
100
AcDbLine
 10
26.0491038274
 20
91.6754170122
 30
0.0
 11
67.3250039571
 21
91.6754170122
 31
0.0
  0
LINE
  5
A6
330
1F
100
AcDbEntity
  8
0
  6
Continuous
 62
     7
370
    25
100
AcDbLine
 10
67.3250039571
 20
91.6754170122
 30
0.0
 11
67.3250039571
 21
72.6754170122
 31
0.0
  0
LINE
  5
A7
330
1F
100
AcDbEntity
  8
0
  6
Continuous
 62
     7
370
    25
100
AcDbLine
 10
81.3250039571
 20
72.6754170122
 30
0.0
 11
81.3250039571
 21
91.6784423382
 31
0.0
  0
LINE
  5
A8
330
1F
100
AcDbEntity
  8
0
  6
Continuous
 62
     7
370
    25
100
AcDbLine
 10
-40.6749960429
 20
86.6754170122
 30
0.0
 11
-40.6749960429
 21
59.6754170122
 31
0.0
  0
LINE
  5
A9
330
1F
100
AcDbEntity
  8
0
  6
Continuous
 62
     7
370
    25
100
AcDbLine
 10
-26.6749960429
 20
59.6754170122
 30
0.0
 11
-26.6749960429
 21
86.6789079194
 31
0.0
  0
LINE
  5
AA
330
1F
100
AcDbEntity
  8
0
  6
Continuous
 62
     7
370
    25
100
AcDbLine
 10
-41.6749960429
 20
148.6754170122
 30
0.0
 11
-41.6749960429
 21
86.6754170122
 31
0.0
  0
SPLINE
  5
AB
330
1F
100
AcDbEntity
  8
0
  6
Continuous
 62
     7
370
    25
100
AcDbSpline
210
0.0
220
0.0
230
1.0
 70
     8
 71
     3
 72
    27
 73
    23
 74
     0
 42
0.00000001
 43
0.00000001
 40
0.0
 40
0.0
 40
0.0
 40
0.0
 40
0.0108504886896606
 40
0.0645027765961394
 40
0.1160322403625599
 40
0.1690145966909849
 40
0.2213335182312857
 40
0.275111773606339
 40
0.3284288242343587
 40
0.3833072694211027
 40
0.4362790705909658
 40
0.4908596116188462
 40
0.5426206249775126
 40
0.5958969070698404
 40
0.6474926849973047
 40
0.7005244671475305
 40
0.7532287198309687
 40
0.8074191567313891
 40
0.8608047514164531
 40
0.9157815938724153
 40
0.957503145459554
 40
1.0
 40
1.0
 40
1.0
 40
1.0
 10
-26.69053985571525
 20
86.67891555025615
 30
0.0
 10
-26.68572705138424
 20
86.67783243802502
 30
0.0
 10
-26.6571164282646
 20
86.67139367307428
 30
0.0
 10
-26.79454997889726
 20
86.70247566540057
 30
0.0
 10
-27.10863399235458
 20
86.77126094587852
 30
0.0
 10
-27.61216017173312
 20
86.87530164863504
 30
0.0
 10
-28.28330822597581
 20
87.00146350886145
 30
0.0
 10
-29.10540935878328
 20
87.13659167460351
 30
0.0
 10
-30.07001776384193
 20
87.2673144365881
 30
0.0
 10
-31.13509378881727
 20
87.37621721326197
 30
0.0
 10
-32.28355594121634
 20
87.45153642281886
 30
0.0
 10
-33.45190045378314
 20
87.48292519187895
 30
0.0
 10
-34.62812257440774
 20
87.46837438895996
 30
0.0
 10
-35.75563189443194
 20
87.41120319018397
 30
0.0
 10
-36.83265421748362
 20
87.31722572033387
 30
0.0
 10
-37.81882566388958
 20
87.19784122196539
 30
0.0
 10
-38.70563184172592
 20
87.06351898286621
 30
0.0
 10
-39.45414840587807
 20
86.93044283409357
 30
0.0
 10
-40.05004996420803
 20
86.81182225589636
 30
0.0
 10
-40.42838948959279
 20
86.73055117040195
 30
0.0
 10
-40.63890265712301
 20
86.68360350003785
 30
0.0
 10
-40.66289130229139
 20
86.67816253775227
 30
0.0
 10
-40.6749960429439
 20
86.67541701223782
 30
0.0
  0
SPLINE
  5
AC
330
1F
100
AcDbEntity
  8
0
  6
Continuous
 62
     7
370
    25
100
AcDbSpline
210
0.0
220
0.0
230
1.0
 70
     8
 71
     3
 72
    27
 73
    23
 74
     0
 42
0.00000001
 43
0.00000001
 40
0.0
 40
0.0
 40
0.0
 40
0.0
 40
0.0073045518332296
 40
0.0606802497189221
 40
0.1116410447182828
 40
0.1640261496819332
 40
0.2160213579243273
 40
0.2694418687074535
 40
0.3228892994219862
 40
0.3779007948775953
 40
0.4309828043110759
 40
0.4857098993649916
 40
0.5370462990690054
 40
0.5898987227986323
 40
0.6408800816072937
 40
0.6932582501313604
 40
0.7457678917036196
 40
0.7997350271708342
 40
0.8533260414361719
 40
0.9085260539650443
 40
0.9537567735828312
 40
1.0
 40
1.0
 40
1.0
 40
1.0
 10
81.31368626422487
 20
91.67845204845003
 30
0.0
 10
81.3173214858662
 20
91.67747731806978
 30
0.0
 10
81.3475199377379
 20
91.66938005430421
 30
0.0
 10
81.22042119307933
 20
91.70366292573566
 30
0.0
 10
80.92433189529989
 20
91.78127507570971
 30
0.0
 10
80.44001948891325
 20
91.9015524482997
 30
0.0
 10
79.79005489541805
 20
92.04925236386212
 30
0.0
 10
78.98630996118206
 20
92.21015753918587
 30
0.0
 10
78.03609751105051
 20
92.36853549339321
 30
0.0
 10
76.97867568399164
 20
92.50324852141544
 30
0.0
 10
75.83311348012039
 20
92.59908749936804
 30
0.0
 10
74.66695706078438
 20
92.6423336316084
 30
0.0
 10
73.49330743401717
 20
92.63040384160209
 30
0.0
 10
72.37076761451603
 20
92.56732906482009
 30
0.0
 10
71.29685104698852
 20
92.45991191472284
 30
0.0
 10
70.30801150829176
 20
92.32102175565451
 30
0.0
 10
69.41111655010235
 20
92.16225056369638
 30
0.0
 10
68.6434235125785
 20
92.00194124076769
 30
0.0
 10
68.02251674743778
 20
91.85616047086732
 30
0.0
 10
67.60941284360844
 20
91.75111879589318
 30
0.0
 10
67.36781401316067
 20
91.68700166126182
 30
0.0
 10
67.33937888998659
 20
91.67930695231021
 30
0.0
 10
67.3250039570561
 20
91.67541701223782
 30
0.0
  0
LINE
  5
AD
330
1F
100
AcDbEntity
  8
0
  6
Continuous
 62
     7
370
    25
100
AcDbLine
 10
82.3250039571
 20
143.6754170122
 30
0.0
 11
82.3250039571
 21
91.6754170122
 31
0.0
  0
LINE
  5
AE
330
1F
100
AcDbEntity
  8
0
  6
Continuous
 62
     7
370
    25
100
AcDbLine
 10
67.3250039571
 20
72.6754170122
 30
0.0
 11
81.3250039571
 21
72.6754170122
 31
0.0
  0
LINE
  5
AF
330
1F
100
AcDbEntity
  8
0
  6
Continuous
 62
     7
370
    25
100
AcDbLine
 10
-40.6749960429
 20
59.6754170122
 30
0.0
 11
-26.6749960429
 21
59.6754170122
 31
0.0
  0
LINE
  5
B0
330
1F
100
AcDbEntity
  8
0
  6
Continuous
 62
     1
370
    25
100
AcDbLine
 10
19.881272886
 20
148.2118595714
 30
0.0
 11
19.881272886
 21
87.138974453
 31
0.0
  0
LINE
  5
B1
330
1F
100
AcDbEntity
  8
0
  6
Continuous
 62
     1
370
    25
100
AcDbLine
 10
18.6009040867
 20
148.6754170122
 30
0.0
 11
18.6009040867
 21
86.6754170122
 31
0.0
  0
LINE
  5
B2
330
1F
100
AcDbEntity
  8
0
  6
Continuous
 62
     1
370
    25
100
AcDbLine
 10
24.7687350281
 20
144.138974453
 30
0.0
 11
24.7687350281
 21
91.2118595714
 31
0.0
  0
LINE
  5
B3
330
1F
100
AcDbEntity
  8
0
  6
Continuous
 62
     1
370
    25
100
AcDbLine
 10
26.0491038274
 20
143.6754170122
 30
0.0
 11
26.0491038274
 21
91.6754170122
 31
0.0
  0
ARC
  5
B4
330
1F
100
AcDbEntity
  8
0
  6
Continuous
 62
     7
370
    25
100
AcDbCircle
 10
165.1701403815
 20
223.2632167898
 30
0.0
 40
2.000000000000027
100
AcDbArc
 50
320.1944289077
 51
0.0
  0
ARC
  5
B5
330
1F
100
AcDbEntity
  8
0
  6
Continuous
 62
     7
370
    25
100
AcDbCircle
 10
107.1701403815
 20
223.2632167898
 30
0.0
 40
2.000000000000016
100
AcDbArc
 50
180.0
 51
219.8055710923
  0
LINE
  5
B6
330
1F
100
AcDbEntity
  8
0
  6
Continuous
 62
     7
370
    25
100
AcDbLine
 10
167.1701403815
 20
223.2632167898
 30
0.0
 11
167.1701403815
 21
283.5391169194
 31
0.0
  0
LINE
  5
B7
330
1F
100
AcDbEntity
  8
0
  6
Continuous
 62
     7
370
    25
100
AcDbLine
 10
105.1701403815
 20
283.5391169194
 30
0.0
 11
105.1701403815
 21
223.2632167898
 31
0.0
  0
LINE
  5
B8
330
1F
100
AcDbEntity
  8
0
  6
Continuous
 62
     7
370
    25
100
AcDbLine
 10
105.6336978223
 20
221.9828479904
 30
0.0
 11
109.7065829407
 21
217.0953858484
 31
0.0
  0
LINE
  5
B9
330
1F
100
AcDbEntity
  8
0
  6
Continuous
 62
     7
370
    25
100
AcDbLine
 10
162.6336978223
 20
217.0953858484
 30
0.0
 11
166.7065829407
 21
221.9828479904
 31
0.0
  0
ARC
  5
BA
330
1F
100
AcDbEntity
  8
0
  6
Continuous
 62
     7
370
    25
100
AcDbCircle
 10
164.1701403815
 20
215.815017049
 30
0.0
 40
2.0
100
AcDbArc
 50
140.1944289077
 51
180.0
  0
ARC
  5
BB
330
1F
100
AcDbEntity
  8
0
  6
Continuous
 62
     7
370
    25
100
AcDbCircle
 10
108.1701403815
 20
215.815017049
 30
0.0
 40
2.0
100
AcDbArc
 50
0.0
 51
39.8055710923
  0
LINE
  5
BC
330
1F
100
AcDbEntity
  8
0
  6
Continuous
 62
     7
370
    25
100
AcDbLine
 10
162.1701403815
 20
159.5391169194
 30
0.0
 11
162.1701403815
 21
215.815017049
 31
0.0
  0
LINE
  5
BD
330
1F
100
AcDbEntity
  8
0
  6
Continuous
 62
     7
370
    25
100
AcDbLine
 10
110.1701403815
 20
215.815017049
 30
0.0
 11
110.1701403815
 21
159.5391169194
 31
0.0
  0
CIRCLE
  5
BE
330
1F
100
AcDbEntity
  8
0
  6
Continuous
 62
     7
370
    25
100
AcDbCircle
 10
136.1701403815
 20
275.5391169194
 30
0.0
 40
7.0
  0
CIRCLE
  5
BF
330
1F
100
AcDbEntity
  8
0
  6
Continuous
 62
     7
370
    25
100
AcDbCircle
 10
136.1701403815
 20
275.5391169194
 30
0.0
 40
5.0
  0
CIRCLE
  5
C0
330
1F
100
AcDbEntity
  8
0
  6
Continuous
 62
     7
370
    25
100
AcDbCircle
 10
136.1701403815
 20
167.5391169194
 30
0.0
 40
7.000000000000028
  0
CIRCLE
  5
C1
330
1F
100
AcDbEntity
  8
0
  6
Continuous
 62
     7
370
    25
100
AcDbCircle
 10
136.1701403815
 20
167.5391169194
 30
0.0
 40
5.000000000000028
  0
LINE
  5
C2
330
1F
100
AcDbEntity
  8
0
  6
Continuous
 62
     7
370
    25
100
AcDbLine
 10
167.1701403815
 20
283.5391169194
 30
0.0
 11
105.1701403815
 21
283.5391169194
 31
0.0
  0
LINE
  5
C3
330
1F
100
AcDbEntity
  8
0
  6
Continuous
 62
     7
370
    25
100
AcDbLine
 10
162.1701403815
 20
159.5391169194
 30
0.0
 11
110.1701403815
 21
159.5391169194
 31
0.0
  0
LINE
  5
C4
330
1F
100
AcDbEntity
  8
0
  6
Continuous
 62
     1
370
    25
100
AcDbLine
 10
166.7065829407
 20
221.9828479904
 30
0.0
 11
105.6336978223
 21
221.9828479904
 31
0.0
  0
LINE
  5
C5
330
1F
100
AcDbEntity
  8
0
  6
Continuous
 62
     1
370
    25
100
AcDbLine
 10
167.1701403815
 20
223.2632167898
 30
0.0
 11
105.1701403815
 21
223.2632167898
 31
0.0
  0
LINE
  5
C6
330
1F
100
AcDbEntity
  8
0
  6
Continuous
 62
     1
370
    25
100
AcDbLine
 10
162.6336978223
 20
217.0953858484
 30
0.0
 11
109.7065829407
 21
217.0953858484
 31
0.0
  0
LINE
  5
C7
330
1F
100
AcDbEntity
  8
0
  6
Continuous
 62
     1
370
    25
100
AcDbLine
 10
162.1701403815
 20
215.815017049
 30
0.0
 11
110.1701403815
 21
215.815017049
 31
0.0
  0
INSERT
  5
D3
330
1F
100
AcDbEntity
  8
FORMAT
 62
     7
100
AcDbBlockReference
  2
SW_CENTERMARKSYMBOL_1
 10
136.1701403815
 20
167.5391169194
 30
0.0
  0
INSERT
  5
DF
330
1F
100
AcDbEntity
  8
FORMAT
 62
     7
100
AcDbBlockReference
  2
SW_CENTERMARKSYMBOL_2
 10
136.1701403815
 20
275.5391169194
 30
0.0
  0
ARC
  5
E0
330
1F
100
AcDbEntity
  8
0
  6
Continuous
 62
     7
370
    25
100
AcDbCircle
 10
255.7537164944
 20
88.6754170122
 30
0.0
 40
2.0
100
AcDbArc
 50
230.1944289077
 51
270.0
  0
ARC
  5
E1
330
1F
100
AcDbEntity
  8
0
  6
Continuous
 62
     7
370
    25
100
AcDbCircle
 10
255.7537164944
 20
146.6754170122
 30
0.0
 40
2.000000000000028
100
AcDbArc
 50
90.0
 51
129.8055710923
  0
LINE
  5
E2
330
1F
100
AcDbEntity
  8
0
  6
Continuous
 62
     7
370
    25
100
AcDbLine
 10
315.0296166241
 20
86.6754170122
 30
0.0
 11
316.0296166241
 21
86.6754170122
 31
0.0
  0
LINE
  5
E3
330
1F
100
AcDbEntity
  8
0
  6
Continuous
 62
     7
370
    25
100
AcDbLine
 10
255.7537164944
 20
86.6754170122
 30
0.0
 11
301.0451604368
 21
86.6754170122
 31
0.0
  0
LINE
  5
E4
330
1F
100
AcDbEntity
  8
0
  6
Continuous
 62
     7
370
    25
100
AcDbLine
 10
316.0296166241
 20
148.6754170122
 30
0.0
 11
255.7537164944
 21
148.6754170122
 31
0.0
  0
LINE
  5
E5
330
1F
100
AcDbEntity
  8
0
  6
Continuous
 62
     7
370
    25
100
AcDbLine
 10
254.4733476951
 20
148.2118595714
 30
0.0
 11
249.585885553
 21
144.138974453
 31
0.0
  0
LINE
  5
E6
330
1F
100
AcDbEntity
  8
0
  6
Continuous
 62
     7
370
    25
100
AcDbLine
 10
249.585885553
 20
91.2118595714
 30
0.0
 11
254.4733476951
 21
87.138974453
 31
0.0
  0
ARC
  5
E7
330
1F
100
AcDbEntity
  8
0
  6
Continuous
 62
     7
370
    25
100
AcDbCircle
 10
248.3055167537
 20
89.6754170122
 30
0.0
 40
2.0
100
AcDbArc
 50
50.1944289077
 51
90.0
  0
ARC
  5
E8
330
1F
100
AcDbEntity
  8
0
  6
Continuous
 62
     7
370
    25
100
AcDbCircle
 10
248.3055167537
 20
145.6754170122
 30
0.0
 40
2.0
100
AcDbArc
 50
270.0
 51
309.8055710923
  0
LINE
  5
E9
330
1F
100
AcDbEntity
  8
0
  6
Continuous
 62
     7
370
    25
100
AcDbLine
 10
207.0296166241
 20
91.6754170122
 30
0.0
 11
248.3055167537
 21
91.6754170122
 31
0.0
  0
LINE
  5
EA
330
1F
100
AcDbEntity
  8
0
  6
Continuous
 62
     7
370
    25
100
AcDbLine
 10
192.0296166241
 20
91.6754170122
 30
0.0
 11
193.0409343169
 21
91.6754170122
 31
0.0
  0
LINE
  5
EB
330
1F
100
AcDbEntity
  8
0
  6
Continuous
 62
     7
370
    25
100
AcDbLine
 10
248.3055167537
 20
143.6754170122
 30
0.0
 11
192.0296166241
 21
143.6754170122
 31
0.0
  0
LINE
  5
EC
330
1F
100
AcDbEntity
  8
0
  6
Continuous
 62
     7
370
    25
100
AcDbLine
 10
193.0296166241
 20
91.6784423382
 30
0.0
 11
193.0296166241
 21
72.6754170122
 31
0.0
  0
LINE
  5
ED
330
1F
100
AcDbEntity
  8
0
  6
Continuous
 62
     7
370
    25
100
AcDbLine
 10
207.0296166241
 20
72.6754170122
 30
0.0
 11
207.0296166241
 21
91.6754170122
 31
0.0
  0
LINE
  5
EE
330
1F
100
AcDbEntity
  8
0
  6
Continuous
 62
     7
370
    25
100
AcDbLine
 10
301.0296166241
 20
86.6789079194
 30
0.0
 11
301.0296166241
 21
59.6754170122
 31
0.0
  0
LINE
  5
EF
330
1F
100
AcDbEntity
  8
0
  6
Continuous
 62
     7
370
    25
100
AcDbLine
 10
315.0296166241
 20
59.6754170122
 30
0.0
 11
315.0296166241
 21
86.6754170122
 31
0.0
  0
LINE
  5
F0
330
1F
100
AcDbEntity
  8
0
  6
Continuous
 62
     7
370
    25
100
AcDbLine
 10
316.0296166241
 20
117.6754170122
 30
0.0
 11
316.0296166241
 21
148.6754170122
 31
0.0
  0
LINE
  5
F1
330
1F
100
AcDbEntity
  8
0
  6
Continuous
 62
     7
370
    25
100
AcDbLine
 10
316.0296166241
 20
86.6754170122
 30
0.0
 11
316.0296166241
 21
117.6754170122
 31
0.0
  0
SPLINE
  5
F2
330
1F
100
AcDbEntity
  8
0
  6
Continuous
 62
     7
370
    25
100
AcDbSpline
210
0.0
220
0.0
230
1.0
 70
     8
 71
     3
 72
    26
 73
    22
 74
     0
 42
0.00000001
 43
0.00000001
 40
0.0
 40
0.0
 40
0.0
 40
0.0
 40
0.0520119307244438
 40
0.1055552356702394
 40
0.157560821776385
 40
0.211032139832999
 40
0.2638311388510878
 40
0.3181243786794722
 40
0.3715056042350137
 40
0.4264841788573858
 40
0.4789697794835969
 40
0.5330387199377111
 40
0.5845399880312991
 40
0.6375127009098073
 40
0.6894750923013576
 40
0.7428782205075223
 40
0.7960163780748126
 40
0.8506858448906882
 40
0.9039103313112553
 40
0.9587432586077584
 40
1.0
 40
1.0
 40
1.0
 40
1.0
 10
315.0296166240572
 20
86.67541701223782
 30
0.0
 10
315.0114353938249
 20
86.67954826491031
 30
0.0
 10
314.9745376279619
 20
86.68793240569079
 30
0.0
 10
314.6781165521945
 20
86.75363977219342
 30
0.0
 10
314.2104404127527
 20
86.85160494999403
 30
0.0
 10
313.5733347298367
 20
86.97417718617639
 30
0.0
 10
312.77473047085
 20
87.10955192379234
 30
0.0
 10
311.842754377954
 20
87.24165363388417
 30
0.0
 10
310.7877245852692
 20
87.3569809880683
 30
0.0
 10
309.6624324498059
 20
87.43934314079978
 30
0.0
 10
308.4842405902177
 20
87.48032324405666
 30
0.0
 10
307.3174247407646
 20
87.47515011724413
 30
0.0
 10
306.1686628119559
 20
87.42561909716945
 30
0.0
 10
305.0869755231677
 20
87.33905778390208
 30
0.0
 10
304.0750168063954
 20
87.22321267982657
 30
0.0
 10
303.1707740377832
 20
87.09149417843345
 30
0.0
 10
302.3877480061468
 20
86.95622882966943
 30
0.0
 10
301.7625423658995
 20
86.83410319630181
 30
0.0
 10
301.3160482968814
 20
86.73949080412612
 30
0.0
 10
301.0626959610989
 20
86.6829182456341
 30
0.0
 10
301.0504278376261
 20
86.68011789815867
 30
0.0
 10
301.0451604368286
 20
86.67891555025615
 30
0.0
  0
SPLINE
  5
F3
330
1F
100
AcDbEntity
  8
0
  6
Continuous
 62
     7
370
    25
100
AcDbSpline
210
0.0
220
0.0
230
1.0
 70
     8
 71
     3
 72
    26
 73
    22
 74
     0
 42
0.00000001
 43
0.00000001
 40
0.0
 40
0.0
 40
0.0
 40
0.0
 40
0.0516333363898261
 40
0.1047962893514215
 40
0.1564208821522513
 40
0.2094845500307908
 40
0.2622070182084787
 40
0.3164045673347065
 40
0.3699896842020539
 40
0.4251980407114836
 40
0.4775299627412464
 40
0.5314698748620543
 40
0.5823674886978036
 40
0.6347117607297599
 40
0.6862313439828476
 40
0.7391519265833403
 40
0.7923532634659012
 40
0.8470804023057401
 40
0.9004624333620765
 40
0.9554842890742952
 40
1.0
 40
1.0
 40
1.0
 40
1.0
 10
207.0296166240572
 20
91.67541701223782
 30
0.0
 10
207.0116446640961
 20
91.68028499208468
 30
0.0
 10
206.975168332176
 20
91.69016516369973
 30
0.0
 10
206.6823152286179
 20
91.76761422240202
 30
0.0
 10
206.2208176776888
 20
91.88316804064115
 30
0.0
 10
205.5915671412031
 20
92.02829138891583
 30
0.0
 10
204.8011882349722
 20
92.18952875067684
 30
0.0
 10
203.8742517607927
 20
92.3483522557887
 30
0.0
 10
202.8208443587679
 20
92.48828199404609
 30
0.0
 10
201.6949898093281
 20
92.5890132450015
 30
0.0
 10
200.5166178315162
 20
92.63993025743329
 30
0.0
 10
199.3544614157929
 20
92.63526291443664
 30
0.0
 10
198.2131563034572
 20
92.57770886532374
 30
0.0
 10
197.1399271528472
 20
92.47636905956405
 30
0.0
 10
196.1334565150942
 20
92.34002585157741
 30
0.0
 10
195.2276607079856
 20
92.18372230813353
 30
0.0
 10
194.4372519921793
 20
92.02176612909089
 30
0.0
 10
193.8000201996898
 20
91.87395825593104
 30
0.0
 10
193.3390863943547
 20
91.75784750054227
 30
0.0
 10
193.0695888071722
 20
91.68622913755034
 30
0.0
 10
193.0497892004966
 20
91.68085534434226
 30
0.0
 10
193.0409343168885
 20
91.67845204845003
 30
0.0
  0
LINE
  5
F4
330
1F
100
AcDbEntity
  8
0
  6
Continuous
 62
     7
370
    25
100
AcDbLine
 10
192.0296166241
 20
117.6754170122
 30
0.0
 11
192.0296166241
 21
143.6754170122
 31
0.0
  0
LINE
  5
F5
330
1F
100
AcDbEntity
  8
0
  6
Continuous
 62
     7
370
    25
100
AcDbLine
 10
192.0296166241
 20
91.6754170122
 30
0.0
 11
192.0296166241
 21
117.6754170122
 31
0.0
  0
LINE
  5
F6
330
1F
100
AcDbEntity
  8
0
  6
Continuous
 62
     7
370
    25
100
AcDbLine
 10
193.0296166241
 20
72.6754170122
 30
0.0
 11
207.0296166241
 21
72.6754170122
 31
0.0
  0
LINE
  5
F7
330
1F
100
AcDbEntity
  8
0
  6
Continuous
 62
     7
370
    25
100
AcDbLine
 10
301.0296166241
 20
59.6754170122
 30
0.0
 11
315.0296166241
 21
59.6754170122
 31
0.0
  0
LINE
  5
F8
330
1F
100
AcDbEntity
  8
0
  6
Continuous
 62
     1
370
    25
100
AcDbLine
 10
254.4733476951
 20
117.6754170122
 30
0.0
 11
254.4733476951
 21
148.2118595714
 31
0.0
  0
LINE
  5
F9
330
1F
100
AcDbEntity
  8
0
  6
Continuous
 62
     1
370
    25
100
AcDbLine
 10
254.4733476951
 20
87.138974453
 30
0.0
 11
254.4733476951
 21
117.6754170122
 31
0.0
  0
LINE
  5
FA
330
1F
100
AcDbEntity
  8
0
  6
Continuous
 62
     1
370
    25
100
AcDbLine
 10
255.7537164944
 20
117.6754170122
 30
0.0
 11
255.7537164944
 21
148.6754170122
 31
0.0
  0
LINE
  5
FB
330
1F
100
AcDbEntity
  8
0
  6
Continuous
 62
     1
370
    25
100
AcDbLine
 10
255.7537164944
 20
86.6754170122
 30
0.0
 11
255.7537164944
 21
117.6754170122
 31
0.0
  0
LINE
  5
FC
330
1F
100
AcDbEntity
  8
0
  6
Continuous
 62
     1
370
    25
100
AcDbLine
 10
249.585885553
 20
117.6754170122
 30
0.0
 11
249.585885553
 21
144.138974453
 31
0.0
  0
LINE
  5
FD
330
1F
100
AcDbEntity
  8
0
  6
Continuous
 62
     1
370
    25
100
AcDbLine
 10
249.585885553
 20
91.2118595714
 30
0.0
 11
249.585885553
 21
117.6754170122
 31
0.0
  0
LINE
  5
FE
330
1F
100
AcDbEntity
  8
0
  6
Continuous
 62
     1
370
    25
100
AcDbLine
 10
248.3055167537
 20
117.6754170122
 30
0.0
 11
248.3055167537
 21
143.6754170122
 31
0.0
  0
LINE
  5
FF
330
1F
100
AcDbEntity
  8
0
  6
Continuous
 62
     1
370
    25
100
AcDbLine
 10
248.3055167537
 20
91.6754170122
 30
0.0
 11
248.3055167537
 21
117.6754170122
 31
0.0
  0
ARC
  5
100
330
1F
100
AcDbEntity
  8
0
  6
Continuous
 62
     7
370
    25
100
AcDbCircle
 10
107.1701403815
 20
-7.6071137977
 30
0.0
 40
2.0
100
AcDbArc
 50
140.1944289077
 51
180.0
  0
ARC
  5
101
330
1F
100
AcDbEntity
  8
0
  6
Continuous
 62
     7
370
    25
100
AcDbCircle
 10
165.1701403815
 20
-7.6071137977
 30
0.0
 40
2.000000000000011
100
AcDbArc
 50
0.0
 51
39.8055710923
  0
LINE
  5
102
330
1F
100
AcDbEntity
  8
0
  6
Continuous
 62
     7
370
    25
100
AcDbLine
 10
105.1701403815
 20
-7.6071137977
 30
0.0
 11
105.1701403815
 21
-67.8830139274
 31
0.0
  0
LINE
  5
103
330
1F
100
AcDbEntity
  8
0
  6
Continuous
 62
     7
370
    25
100
AcDbLine
 10
167.1701403815
 20
-67.8830139274
 30
0.0
 11
167.1701403815
 21
-7.6071137977
 31
0.0
  0
LINE
  5
104
330
1F
100
AcDbEntity
  8
0
  6
Continuous
 62
     7
370
    25
100
AcDbLine
 10
166.7065829407
 20
-6.3267449984
 30
0.0
 11
162.6336978223
 21
-1.4392828563
 31
0.0
  0
LINE
  5
105
330
1F
100
AcDbEntity
  8
0
  6
Continuous
 62
     7
370
    25
100
AcDbLine
 10
109.7065829407
 20
-1.4392828563
 30
0.0
 11
105.6336978223
 21
-6.3267449984
 31
0.0
  0
ARC
  5
106
330
1F
100
AcDbEntity
  8
0
  6
Continuous
 62
     7
370
    25
100
AcDbCircle
 10
108.1701403815
 20
-0.158914057
 30
0.0
 40
2.0
100
AcDbArc
 50
320.1944289077
 51
0.0
  0
ARC
  5
107
330
1F
100
AcDbEntity
  8
0
  6
Continuous
 62
     7
370
    25
100
AcDbCircle
 10
164.1701403815
 20
-0.158914057
 30
0.0
 40
2.0
100
AcDbArc
 50
180.0
 51
219.8055710923
  0
LINE
  5
108
330
1F
100
AcDbEntity
  8
0
  6
Continuous
 62
     7
370
    25
100
AcDbLine
 10
110.1701403815
 20
56.1169860726
 30
0.0
 11
110.1701403815
 21
-0.158914057
 31
0.0
  0
LINE
  5
109
330
1F
100
AcDbEntity
  8
0
  6
Continuous
 62
     7
370
    25
100
AcDbLine
 10
162.1701403815
 20
-0.158914057
 30
0.0
 11
162.1701403815
 21
56.1169860726
 31
0.0
  0
LINE
  5
10A
330
1F
100
AcDbEntity
  8
0
  6
Continuous
 62
     7
370
    25
100
AcDbLine
 10
105.1701403815
 20
-67.8830139274
 30
0.0
 11
167.1701403815
 21
-67.8830139274
 31
0.0
  0
LINE
  5
10B
330
1F
100
AcDbEntity
  8
0
  6
Continuous
 62
     7
370
    25
100
AcDbLine
 10
110.1701403815
 20
56.1169860726
 30
0.0
 11
162.1701403815
 21
56.1169860726
 31
0.0
  0
LINE
  5
10C
330
1F
100
AcDbEntity
  8
0
  6
Continuous
 62
     1
370
    25
100
AcDbLine
 10
105.6336978223
 20
-6.3267449984
 30
0.0
 11
166.7065829407
 21
-6.3267449984
 31
0.0
  0
LINE
  5
10D
330
1F
100
AcDbEntity
  8
0
  6
Continuous
 62
     1
370
    25
100
AcDbLine
 10
105.1701403815
 20
-7.6071137977
 30
0.0
 11
167.1701403815
 21
-7.6071137977
 31
0.0
  0
LINE
  5
10E
330
1F
100
AcDbEntity
  8
0
  6
Continuous
 62
     1
370
    25
100
AcDbLine
 10
109.7065829407
 20
-1.4392828563
 30
0.0
 11
162.6336978223
 21
-1.4392828563
 31
0.0
  0
LINE
  5
10F
330
1F
100
AcDbEntity
  8
0
  6
Continuous
 62
     1
370
    25
100
AcDbLine
 10
110.1701403815
 20
-0.158914057
 30
0.0
 11
162.1701403815
 21
-0.158914057
 31
0.0
  0
LINE
  5
110
330
1F
100
AcDbEntity
  8
0
  6
Continuous
 62
     7
370
    25
100
AcDbLine
 10
207.2152184719
 20
0.2681744385
 30
0.0
 11
207.2152184719
 21
-22.1034235984
 31
0.0
  0
LINE
  5
111
330
1F
100
AcDbEntity
  8
0
  6
Continuous
 62
     7
370
    25
100
AcDbLine
 10
221.2152184719
 20
-22.1034235984
 30
0.0
 11
221.2152184719
 21
0.2680250989
 31
0.0
  0
LINE
  5
112
330
1F
100
AcDbEntity
  8
0
  6
Continuous
 62
     7
370
    25
100
AcDbLine
 10
266.6786023021
 20
30.7642237654
 30
0.0
 11
224.0571045783
 21
55.369090672
 31
0.0
  0
LINE
  5
113
330
1F
100
AcDbEntity
  8
0
  6
Continuous
 62
     7
370
    25
100
AcDbLine
 10
193.0596238665
 20
1.6740612044
 30
0.0
 11
207.2152184719
 21
-6.4977896185
 31
0.0
  0
LINE
  5
114
330
1F
100
AcDbEntity
  8
0
  6
Continuous
 62
     7
370
    25
100
AcDbLine
 10
221.2152184719
 20
-14.5798175877
 30
0.0
 11
235.6811215903
 21
-22.9308057022
 31
0.0
  0
SPLINE
  5
115
330
1F
100
AcDbEntity
  8
0
  6
Continuous
 62
     7
370
    25
100
AcDbSpline
210
0.0
220
0.0
230
1.0
 70
     8
 71
     3
 72
    18
 73
    14
 74
     0
 42
0.00000001
 43
0.00000001
 40
0.0
 40
0.0
 40
0.0
 40
0.0
 40
0.0042838877688222
 40
0.1093780782923418
 40
0.2141178729027118
 40
0.3183504537779975
 40
0.4219215028047837
 40
0.5246974998633616
 40
0.6265910888432057
 40
0.7275832671216368
 40
0.8277361352499581
 40
0.9271926856241179
 40
1.0
 40
1.0
 40
1.0
 40
1.0
 10
273.083151816662
 20
21.33367502123139
 30
0.0
 10
273.0795233950494
 20
21.35181208218814
 30
0.0
 10
272.9868809626054
 20
21.81489537950474
 30
0.0
 10
272.7342420716836
 20
22.6725975535527
 30
0.0
 10
272.3198777455
 20
23.89562871992886
 30
0.0
 10
271.8223070648615
 20
25.04544413132459
 30
0.0
 10
271.2549230028962
 20
26.12465003605325
 30
0.0
 10
270.6176022677849
 20
27.12674456783667
 30
0.0
 10
269.9143326900275
 20
28.04805772142571
 30
0.0
 10
269.1492562744015
 20
28.88634210419729
 30
0.0
 10
268.323990094569
 20
29.63535077023872
 30
0.0
 10
267.5273082769992
 20
30.24884792208051
 30
0.0
 10
266.9832803019037
 20
30.57244122582767
 30
0.0
 10
266.7533469036862
 20
30.70920792051454
 30
0.0
  0
SPLINE
  5
116
330
1F
100
AcDbEntity
  8
0
  6
Continuous
 62
     7
370
    25
100
AcDbSpline
210
0.0
220
0.0
230
1.0
 70
     8
 71
     3
 72
    18
 73
    14
 74
     0
 42
0.00000001
 43
0.00000001
 40
0.0
 40
0.0
 40
0.0
 40
0.0
 40
0.0678570025205903
 40
0.1620509702750059
 40
0.2563432121063973
 40
0.3509839767117823
 40
0.4461840635073169
 40
0.5420955486442841
 40
0.6388002654346245
 40
0.7363079712767217
 40
0.8345646497858803
 40
0.9334690436866766
 40
1.0
 40
1.0
 40
1.0
 40
1.0
 10
235.6760277223223
 20
-22.9160201948981
 30
0.0
 10
235.9026930836559
 20
-23.04602618162632
 30
0.0
 10
236.4439981865549
 20
-23.35649666379177
 30
0.0
 10
237.3563229979089
 20
-23.74372411667876
 30
0.0
 10
238.3989650080665
 20
-24.09122038671081
 30
0.0
 10
239.4834660432641
 20
-24.34361101863272
 30
0.0
 10
240.6050615437929
 20
-24.50410005963146
 30
0.0
 10
241.7617054671234
 20
-24.57085742404702
 30
0.0
 10
242.9502514302169
 20
-24.54303649459187
 30
0.0
 10
244.1671724312215
 20
-24.42109558626944
 30
0.0
 10
245.4087727900288
 20
-24.20040034960648
 30
0.0
 10
246.529585736866
 20
-23.93140547246898
 30
0.0
 10
247.2384123488716
 20
-23.6969457522218
 30
0.0
 10
247.5234718134663
 20
-23.60265617393754
 30
0.0
  0
LINE
  5
117
330
1F
100
AcDbEntity
  8
0
  6
Continuous
 62
     7
370
    25
100
AcDbLine
 10
248.7491948987
 20
-23.1666531639
 30
0.0
 11
252.6501043055
 21
-21.619124523
 31
0.0
  0
LINE
  5
118
330
1F
100
AcDbEntity
  8
0
  6
Continuous
 62
     7
370
    25
100
AcDbLine
 10
274.0285849531
 20
15.4135027097
 30
0.0
 11
273.4179397475
 21
19.5654963907
 31
0.0
  0
LINE
  5
119
330
1F
100
AcDbEntity
  8
0
  6
Continuous
 62
     7
370
    25
100
AcDbLine
 10
309.2385486138
 20
0.4215434271
 30
0.0
 11
273.0641517997
 21
21.3045782
 31
0.0
  0
LINE
  5
11A
330
1F
100
AcDbEntity
  8
0
  6
Continuous
 62
     7
370
    25
100
AcDbLine
 10
247.0868007154
 20
-23.7418178036
 30
0.0
 11
283.2406615653
 21
-44.6129974167
 31
0.0
  0
LINE
  5
11B
330
1F
100
AcDbEntity
  8
0
  6
Continuous
 62
     7
370
    25
100
AcDbLine
 10
283.58275084
 20
-39.6715571425
 30
0.0
 11
283.58275084
 21
-55.5744310823
 31
0.0
  0
LINE
  5
11C
330
1F
100
AcDbEntity
  8
0
  6
Continuous
 62
     7
370
    25
100
AcDbLine
 10
297.58275084
 20
-55.5744310823
 30
0.0
 11
297.58275084
 21
-39.6716124913
 31
0.0
  0
LWPOLYLINE
  5
11D
330
1F
100
AcDbEntity
  8
0
  6
Continuous
 62
     7
370
    25
100
AcDbPolyline
 90
       50
 70
   128
 43
0.0
 10
209.2654710036
 20
-19.245995207
 10
209.9390680192
 20
-18.9040548222
 10
210.682879307
 20
-18.6146479843
 10
211.4846915062
 20
-18.3825267454
 10
212.3313388828
 20
-18.2115025301
 10
213.2089195101
 20
-18.104383551
 10
214.1030235385
 20
-18.062928699
 10
214.9989698046
 20
-18.0878186616
 10
215.8820468955
 20
-18.1786447462
 10
216.7377547098
 20
-18.333915591
 10
217.5520425488
 20
-18.5510816531
 10
218.3115398287
 20
-18.8265770717
 10
219.0037756252
 20
-19.1558782197
 10
219.6173834456
 20
-19.5335779813
 10
220.1422878665
 20
-19.953474537
 10
220.5698699718
 20
-20.4086731967
 10
220.8931088751
 20
-20.8916996112
 10
221.1066970027
 20
-21.3946225001
 10
221.2071272433
 20
-21.9091838834
 10
221.1927505351
 20
-22.4269346775
 10
221.0638029434
 20
-22.9393734286
 10
220.8224017841
 20
-23.4380859066
 10
220.4725108573
 20
-23.9148832664
 10
220.0198753627
 20
-24.3619365085
 10
219.4719275623
 20
-24.7719050311
 10
218.837664744
 20
-25.1380571623
 10
218.1275014857
 20
-25.4543806943
 10
217.3530986485
 20
-25.7156816035
 10
216.5271719056
 20
-25.917669336
 10
215.6632829512
 20
-26.057027259
 10
214.775616818
 20
-26.1314671192
 10
213.8787489595
 20
-26.1397666162
 10
212.9874059211
 20
-26.0817894723
 10
212.1162235309
 20
-25.9584876709
 10
211.2795065795
 20
-25.7718858239
 10
210.4909939363
 20
-25.5250479286
 10
209.763632957
 20
-25.2220270564
 10
209.1093668887
 20
-24.8677988016
 10
208.5389387623
 20
-24.4681795825
 10
208.0617149918
 20
-24.0297311354
 10
207.6855315783
 20
-23.5596527719
 10
207.4165654431
 20
-23.0656631655
 10
207.2592330026
 20
-22.5558736121
 10
207.2161176513
 20
-22.038654842
 10
207.2879273419
 20
-21.5224995731
 10
207.4734829614
 20
-21.0158830606
 10
207.7697376916
 20
-20.5271239336
 10
208.1718270379
 20
-20.0642476036
 10
208.6731487046
 20
-19.634854487
 10
209.2654710036
 20
-19.245995207
  0
LWPOLYLINE
  5
11E
330
1F
100
AcDbEntity
  8
0
  6
Continuous
 62
     7
370
    25
100
AcDbPolyline
 90
       42
 70
   128
 43
0.0
 10
210.679684566
 20
-20.0624033189
 10
211.2608162451
 20
-19.7747629268
 10
211.9111966084
 20
-19.5417043673
 10
212.6155812914
 20
-19.3686903353
 10
213.3574601142
 20
-19.2597761331
 10
214.1194440658
 20
-19.2175146174
 10
214.8836728883
 20
-19.2428963622
 10
215.6322337059
 20
-19.3353264409
 10
216.3475808874
 20
-19.4926383709
 10
217.0129473011
 20
-19.7111448938
 10
217.6127373224
 20
-19.985724402
 10
218.1328923814
 20
-20.3099409844
 10
218.5612204844
 20
-20.6761952793
 10
218.8876819838
 20
-21.0759025962
 10
219.1046248986
 20
-21.4996941346
 10
219.2069642709
 20
-21.9376365799
 10
219.1923013525
 20
-22.3794649324
 10
219.0609798297
 20
-22.81482311
 10
218.8160777677
 20
-23.233506686
 10
218.4633354634
 20
-23.6257020722
 10
218.0110208973
 20
-23.9822165413
 10
217.4697359395
 20
-24.2946936961
 10
216.8521678508
 20
-24.5558093371
 10
216.1727919035
 20
-24.7594431349
 10
215.4475320942
 20
-24.900822086
 10
214.693387898
 20
-24.9766323874
 10
213.9280358157
 20
-24.98509711
 10
213.1694150515
 20
-24.926017848
 10
212.4353070331
 20
-24.800779369
 10
211.7429186303
 20
-24.612317157
 10
211.1084788403
 20
-24.3650486063
 10
210.5468583941
 20
-24.0647694824
 10
210.071221199
 20
-23.7185180733
 10
209.6927157876
 20
-23.3344102186
 10
209.4202140061
 20
-22.9214490808
 10
209.2601030653
 20
-22.4893141191
 10
209.2161358297
 20
-22.0481342106
 10
209.2893428543
 20
-21.6082502386
 10
209.4780082284
 20
-21.1799727104
 10
209.7777097955
 20
-20.7733400883
 10
210.181422805
 20
-20.3978834963
 10
210.679684566
 20
-20.0624033189
  0
SPLINE
  5
11F
330
1F
100
AcDbEntity
  8
0
  6
Continuous
 62
     7
370
    25
100
AcDbSpline
210
0.0
220
0.0
230
1.0
 70
     8
 71
     3
 72
    12
 73
     8
 74
     0
 42
0.00000001
 43
0.00000001
 40
0.0
 40
0.0
 40
0.0
 40
0.0
 40
0.2080358814974998
 40
0.422196911237031
 40
0.6302074157057982
 40
0.8440805142776419
 40
1.0
 40
1.0
 40
1.0
 40
1.0
 10
209.2654710035899
 20
2.800606713874188
 30
0.0
 10
209.00795640248
 20
2.640425922554949
 30
0.0
 10
208.485345262496
 20
2.315348177082966
 30
0.0
 10
207.8975499577506
 20
1.788456524774463
 30
0.0
 10
207.4765544485685
 20
1.240660618276721
 30
0.0
 10
207.2428431487274
 20
0.7325451275458066
 30
0.0
 10
207.2364026998091
 20
0.4056054586427608
 30
0.0
 10
207.2336871464805
 20
0.2677544924453243
 30
0.0
  0
SPLINE
  5
120
330
1F
100
AcDbEntity
  8
0
  6
Continuous
 62
     7
370
    25
100
AcDbSpline
210
0.0
220
0.0
230
1.0
 70
     8
 71
     3
 72
    22
 73
    18
 74
     0
 42
0.00000001
 43
0.00000001
 40
0.0
 40
0.0
 40
0.0
 40
0.0
 40
0.0334745208222159
 40
0.104564498601228
 40
0.1777363526876602
 40
0.2483659941198666
 40
0.3211406394375382
 40
0.3901558840195962
 40
0.4611915033098646
 40
0.5299864321956472
 40
0.6006960489173888
 40
0.6709689561392306
 40
0.7432234583989878
 40
0.8144048289957714
 40
0.8877078805059141
 40
0.9433370674226578
 40
1.0
 40
1.0
 40
1.0
 40
1.0
 10
221.1905228191259
 20
0.2681046326997155
 30
0.0
 10
221.1958163341248
 20
0.3910940672617099
 30
0.0
 10
221.2123517087352
 20
0.7752766706968766
 30
0.0
 10
221.0279330922839
 20
1.420343199633986
 30
0.0
 10
220.6509310925819
 20
2.156004857560715
 30
0.0
 10
220.0737948979105
 20
2.823304189252739
 30
0.0
 10
219.3435879258144
 20
3.380874834632232
 30
0.0
 10
218.4677298769246
 20
3.823743363048625
 30
0.0
 10
217.4935931678645
 20
4.135185906562028
 30
0.0
 10
216.4249044794418
 20
4.320805091218896
 30
0.0
 10
215.3024648249201
 20
4.380468700441403
 30
0.0
 10
214.1331213982173
 20
4.319737769214118
 30
0.0
 10
212.9629755279048
 20
4.14665969015785
 30
0.0
 10
211.8099062232718
 20
3.870647308548679
 30
0.0
 10
210.808593612298
 20
3.535120132244931
 30
0.0
 10
209.9497434658129
 20
3.172846466814211
 30
0.0
 10
209.4949573901531
 20
2.925445810218761
 30
0.0
 10
209.2654710035898
 20
2.800606713874191
 30
0.0
  0
LWPOLYLINE
  5
121
330
1F
100
AcDbEntity
  8
0
  6
Continuous
 62
     7
370
    25
100
AcDbPolyline
 90
      105
 70
   128
 43
0.0
 10
186.6380540056
 20
15.867250205
 10
186.678046423
 20
17.4186840626
 10
186.7978777472
 20
19.0106311686
 10
186.9971107267
 20
20.6372826806
 10
187.275018382
 20
22.2927031237
 10
187.6305866581
 20
23.9708520482
 10
188.062518125
 20
25.6656060707
 10
188.5692367116
 20
27.3707812175
 10
189.1488934568
 20
29.0801554894
 10
189.7993732558
 20
30.7874915652
 10
190.5183025786
 20
32.4865595605
 10
191.3030581299
 20
34.1711597606
 10
192.1507764219
 20
35.835145242
 10
193.0583642224
 20
37.4724443021
 10
194.022509842
 20
39.0770826143
 10
195.0396952178
 20
40.6432050273
 10
196.1062087508
 20
42.1650969303
 10
197.2181588488
 20
43.6372051048
 10
198.3714881263
 20
45.0541579878
 10
199.5619882099
 20
46.4107852717
 10
200.785315094
 20
47.7021367708
 10
202.0370049915
 20
48.9235004835
 10
203.3124906215
 20
50.070419786
 10
204.6071178754
 20
51.1387096943
 10
205.9161627987
 20
52.1244721342
 10
207.2348488285
 20
53.0241101655
 10
208.5583642224
 20
53.8343411067
 10
209.8818796163
 20
54.5522085129
 10
211.2005656461
 20
55.1750929637
 10
212.5096105694
 20
55.7007216214
 10
213.8042378233
 20
56.1271765239
 10
215.0797234533
 20
56.4529015837
 10
216.3314133508
 20
56.6767082653
 10
217.5547402349
 20
56.7977799223
 10
218.7452403185
 20
56.8156747774
 10
219.8985695961
 20
56.7303275343
 10
221.010519694
 20
56.5420496158
 10
222.077033227
 20
56.2515280275
 10
223.0942186028
 20
55.8598228512
 10
224.0583642224
 20
55.3683633768
 10
224.9659520229
 20
54.7789428864
 10
225.8136703149
 20
54.0937121115
 10
226.5984258662
 20
53.315171385
 10
227.317355189
 20
52.4461615174
 10
227.967834988
 20
51.4898534316
 10
228.5474917332
 20
50.4497365921
 10
229.0542103198
 20
49.3296062724
 10
229.4861417867
 20
48.1335497065
 10
229.8417100628
 20
46.8659311752
 10
230.1196177181
 20
45.5313760811
 10
230.3188506976
 20
44.1347540709
 10
230.4386820218
 20
42.6811612668
 10
230.4786744392
 20
41.1759016715
 10
230.4386820218
 20
39.6244678139
 10
230.3188506976
 20
38.0325207079
 10
230.1196177181
 20
36.4058691958
 10
229.8417100628
 20
34.7504487527
 10
229.4861417867
 20
33.0722998282
 10
229.0542103198
 20
31.3775458058
 10
228.5474917332
 20
29.672370659
 10
227.967834988
 20
27.962996387
 10
227.317355189
 20
26.2556603113
 10
226.5984258662
 20
24.556592316
 10
225.8136703149
 20
22.8719921159
 10
224.9659520229
 20
21.2080066345
 10
224.0583642224
 20
19.5707075744
 10
223.0942186028
 20
17.9660692622
 10
222.077033227
 20
16.3999468492
 10
221.010519694
 20
14.8780549462
 10
219.898569596
 20
13.4059467716
 10
218.7452403185
 20
11.9889938887
 10
217.5547402349
 20
10.6323666048
 10
216.3314133508
 20
9.3410151057
 10
215.0797234533
 20
8.119651393
 10
213.8042378233
 20
6.9727320905
 10
212.5096105694
 20
5.9044421822
 10
211.2005656461
 20
4.9186797423
 10
209.8818796163
 20
4.019041711
 10
208.5583642224
 20
3.2088107698
 10
207.2348488285
 20
2.4909433636
 10
205.9161627987
 20
1.8680589128
 10
204.6071178754
 20
1.3424302551
 10
203.3124906215
 20
0.9159753525
 10
202.0370049915
 20
0.5902502928
 10
200.785315094
 20
0.3664436112
 10
199.5619882099
 20
0.2453719542
 10
198.3714881263
 20
0.2274770991
 10
197.2181588488
 20
0.3128243422
 10
196.1062087508
 20
0.5011022607
 10
195.0396952178
 20
0.791623849
 10
194.022509842
 20
1.1833290252
 10
193.0583642224
 20
1.6747884997
 10
192.1507764219
 20
2.2642089901
 10
191.3030581299
 20
2.949439765
 10
190.5183025786
 20
3.7279804915
 10
189.7993732558
 20
4.5969903591
 10
189.1488934568
 20
5.5532984449
 10
188.5692367116
 20
6.5934152844
 10
188.062518125
 20
7.7135456041
 10
187.6305866581
 20
8.90960217
 10
187.275018382
 20
10.1772207013
 10
186.9971107267
 20
11.5117757954
 10
186.7978777472
 20
12.9083978056
 10
186.678046423
 20
14.3619906097
 10
186.6380540056
 20
15.867250205
  0
LWPOLYLINE
  5
122
330
1F
100
AcDbEntity
  8
0
  6
Continuous
 62
     7
370
    25
100
AcDbPolyline
 90
       94
 70
   128
 43
0.0
 10
190.8806946927
 20
18.3164745405
 10
190.9210242685
 20
19.7178678967
 10
191.0418289812
 20
21.1594305536
 10
191.2425576265
 20
22.6345849912
 10
191.5222943258
 20
24.1366004183
 10
191.8797627047
 20
25.658623483
 10
192.3133317169
 20
27.193709543
 10
192.8210230864
 20
28.7348543529
 10
193.400520334
 20
30.2750260223
 10
194.0491793467
 20
31.8071971011
 10
194.7640404421
 20
33.3243766441
 10
195.5418418731
 20
34.8196421091
 10
196.3790347101
 20
36.2861709427
 10
197.2717990342
 20
37.7172717101
 10
198.2160613666
 20
39.1064146269
 10
199.2075132548
 20
40.4472613525
 10
200.2416309312
 20
41.7336939108
 10
201.3136959541
 20
42.9598426052
 10
202.4188167367
 20
44.1201128003
 10
203.5519508663
 20
45.2092104493
 10
204.7079281118
 20
46.2221662496
 10
205.8814740141
 20
47.1543583161
 10
207.0672339524
 20
48.0015332703
 10
208.2597975762
 20
48.759825647
 10
209.4537234911
 20
49.4257755322
 10
210.643564087
 20
49.9963443492
 10
211.8238903942
 20
50.4689287234
 10
212.9893168544
 20
50.8413723607
 10
214.1345258941
 20
51.1119758862
 10
215.254292187
 20
51.2795045981
 10
216.3435064964
 20
51.3431941013
 10
217.3971989872
 20
51.3027537951
 10
218.4105619023
 20
51.1583681995
 10
219.378971499
 20
50.9106961128
 10
220.2980091466
 20
50.5608676059
 10
221.1634814869
 20
50.110478866
 10
221.9714395683
 20
49.5615849138
 10
222.7181968633
 20
48.9166902263
 10
223.4003460897
 20
48.1787373101
 10
224.014774757
 20
47.3510932752
 10
224.5586793681
 20
46.4375344714
 10
225.029578211
 20
45.442229258
 10
225.4253226823
 20
44.3697189844
 10
225.7441070908
 20
43.2248972691
 10
225.9844768963
 20
42.0129876709
 10
226.1453353465
 20
40.7395198553
 10
226.2259484813
 20
39.410304364
 10
226.2259484813
 20
38.0314061023
 10
226.1453353465
 20
36.6091166667
 10
225.9844768963
 20
35.1499256377
 10
225.7441070908
 20
33.6604909694
 10
225.4253226823
 20
32.1476086104
 10
225.029578211
 20
30.618181496
 10
224.5586793681
 20
29.0791880513
 10
224.014774757
 20
27.5376503504
 10
223.4003460897
 20
26.0006020764
 10
222.7181968633
 20
24.4750564278
 10
221.9714395683
 20
22.9679741197
 10
221.1634814869
 20
21.4862316228
 10
220.2980091466
 20
20.0365897885
 10
219.378971499
 20
18.6256629999
 10
218.4105619023
 20
17.2598889922
 10
217.3971989872
 20
15.9454994791
 10
216.3435064964
 20
14.6884917185
 10
215.254292187
 20
13.4946011484
 10
214.1345258941
 20
12.3692752176
 10
212.9893168544
 20
11.3176485304
 10
211.8238903942
 20
10.344519418
 10
210.643564087
 20
9.4543280454
 10
209.4537234911
 20
8.6511361517
 10
208.2597975762
 20
7.9386085173
 10
207.0672339524
 20
7.3199962423
 10
205.8814740141
 20
6.7981219126
 10
204.7079281118
 20
6.3753667212
 10
203.5519508663
 20
6.0536596029
 10
202.4188167367
 20
5.8344684337
 10
201.3136959541
 20
5.7187933325
 10
200.2416309312
 20
5.7071620983
 10
199.2075132548
 20
5.7996278017
 10
198.2160613666
 20
5.9957685429
 10
197.2717990342
 20
6.2946893768
 10
196.3790347101
 20
6.695026396
 10
195.5418418731
 20
7.1949529547
 10
194.7640404421
 20
7.7921880026
 10
194.0491793467
 20
8.4840064932
 10
193.400520334
 20
9.2672518173
 10
192.8210230864
 20
10.1383502062
 10
192.3133317169
 20
11.0933270377
 10
191.8797627047
 20
12.1278249716
 10
191.5222943258
 20
13.2371238312
 10
191.2425576265
 20
14.41616214
 10
191.0418289812
 20
15.6595602168
 10
190.9210242685
 20
16.9616447212
 10
190.8806946927
 20
18.3164745405
  0
LWPOLYLINE
  5
123
330
1F
100
AcDbEntity
  8
0
  6
Continuous
 62
     7
370
    25
100
AcDbPolyline
 90
        3
 70
   128
 43
0.0
 10
266.6786023021
 20
30.7642237654
 10
266.6798619462
 20
30.7634964701
 10
266.7493012975
 20
30.7230361043
  0
ARC
  5
124
330
1F
100
AcDbEntity
  8
0
  6
Continuous
 62
     7
370
    25
100
AcDbCircle
 10
250.7129948926
 20
16.1702320402
 30
0.0
 40
22.95722599564837
100
AcDbArc
 50
1.7777630663
 51
12.7735323513
  0
ARC
  5
125
330
1F
100
AcDbEntity
  8
0
  6
Continuous
 62
     7
370
    25
100
AcDbCircle
 10
240.1808474397
 20
-1.4808900648
 30
0.0
 40
23.31646133520553
100
AcDbArc
 50
288.4836131485
 51
297.7055926734
  0
LINE
  5
126
330
1F
100
AcDbEntity
  8
0
  6
Continuous
 62
     7
370
    25
100
AcDbLine
 10
252.9099834708
 20
-21.5138717826
 30
0.0
 11
252.6501043055
 21
-21.619124523
 31
0.0
  0
LWPOLYLINE
  5
127
330
1F
100
AcDbEntity
  8
0
  6
Continuous
 62
     7
370
    25
100
AcDbPolyline
 90
       37
 70
   128
 43
0.0
 10
309.2385486138
 20
0.4215434271
 10
309.5580004336
 20
0.2278339833
 10
310.3664876296
 20
-0.3538800715
 10
311.1132015628
 20
-1.0306656911
 10
311.794877043
 20
-1.799563464
 10
312.4085332767
 20
-2.6572111958
 10
312.9514869015
 20
-3.5998586114
 10
313.4213637193
 20
-4.6233837534
 10
313.8161090782
 20
-5.7233110068
 10
314.1339968573
 20
-6.8948306695
 10
314.3736370143
 20
-8.1328199842
 10
314.5339816636
 20
-9.4318655385
 10
314.6143296589
 20
-10.7862869368
 10
314.6143296589
 20
-12.190161639
 10
314.5339816636
 20
-13.6373508581
 10
314.3736370143
 20
-15.1215264039
 10
314.1339968573
 20
-16.6361983544
 10
313.8161090782
 20
-18.1747434346
 10
313.4213637193
 20
-19.7304339782
 10
312.9514869015
 20
-21.2964673463
 10
312.4085332767
 20
-22.8659956736
 10
311.794877043
 20
-24.4321558118
 10
311.1132015628
 20
-25.9880993414
 10
310.3664876296
 20
-27.527022517
 10
309.5580004336
 20
-29.0421960193
 10
308.6912752833
 20
-30.5269943799
 10
307.7701021475
 20
-31.9749249535
 10
306.7985090819
 20
-33.3796563081
 10
305.7807446156
 20
-34.7350459108
 10
304.7212591739
 20
-36.0351669878
 10
303.6246856169
 20
-37.2743344405
 10
302.4958189818
 20
-38.4471297048
 10
301.3395955151
 20
-39.5484244454
 10
300.1610710879
 20
-40.5734029808
 10
298.9653990877
 20
-41.5175833404
 10
297.7578078839
 20
-42.3768368639
 10
297.58275084
 20
-42.493674122
  0
LWPOLYLINE
  5
128
330
1F
100
AcDbEntity
  8
0
  6
Continuous
 62
     7
370
    25
100
AcDbPolyline
 90
        3
 70
   128
 43
0.0
 10
283.58275084
 20
-44.8003518611
 10
283.3475236697
 20
-44.6736817052
 10
283.2406615653
 20
-44.6129974167
  0
SPLINE
  5
129
330
1F
100
AcDbEntity
  8
0
  6
Continuous
 62
     7
370
    25
100
AcDbSpline
210
0.0
220
0.0
230
1.0
 70
     8
 71
     3
 72
    12
 73
     8
 74
     0
 42
0.00000001
 43
0.00000001
 40
0.0
 40
0.0
 40
0.0
 40
0.0
 40
0.2095748083677976
 40
0.4191695958189023
 40
0.6285260335441303
 40
0.8379120570090127
 40
1.0
 40
1.0
 40
1.0
 40
1.0
 10
285.6330033717371
 20
-37.20272726512328
 30
0.0
 10
285.3736399748678
 20
-37.36367640424152
 30
0.0
 10
284.8548884556247
 20
-37.68559002600274
 30
0.0
 10
284.2664827761095
 20
-38.20116470276356
 30
0.0
 10
283.8505647840552
 20
-38.72672385072325
 30
0.0
 10
283.6123135259895
 20
-39.2190620939311
 30
0.0
 10
283.6045350970571
 20
-39.53441094402366
 30
0.0
 10
283.6011410784737
 20
-39.67200940596635
 30
0.0
  0
SPLINE
  5
12A
330
1F
100
AcDbEntity
  8
0
  6
Continuous
 62
     7
370
    25
100
AcDbSpline
210
0.0
220
0.0
230
1.0
 70
     8
 71
     3
 72
    22
 73
    18
 74
     0
 42
0.00000001
 43
0.00000001
 40
0.0
 40
0.0
 40
0.0
 40
0.0
 40
0.0259164562507406
 40
0.0982278706821428
 40
0.1705293999678498
 40
0.2424068170026119
 40
0.3142738698630537
 40
0.3837300853790086
 40
0.4531918992203946
 40
0.52209374009658
 40
0.5910061010703828
 40
0.6619915392105461
 40
0.73297707258594
 40
0.8055105922488334
 40
0.8780320861995171
 40
0.9390177815434716
 40
1.0
 40
1.0
 40
1.0
 40
1.0
 10
297.5604134183972
 20
-39.67132722810935
 30
0.0
 10
297.566303492017
 20
-39.57372619740237
 30
0.0
 10
297.588627894097
 20
-39.20380133846434
 30
0.0
 10
297.4211216343982
 20
-38.56638117267695
 30
0.0
 10
297.0634901131381
 20
-37.80088653681659
 30
0.0
 10
296.5018185402601
 20
-37.1148265684932
 30
0.0
 10
295.7844501685186
 20
-36.53715921235306
 30
0.0
 10
294.9264439323076
 20
-36.09003996685649
 30
0.0
 10
293.9678272076316
 20
-35.7742243207739
 30
0.0
 10
292.9229732991505
 20
-35.59377698715143
 30
0.0
 10
291.8129931034665
 20
-35.53707369754371
 30
0.0
 10
290.659925799923
 20
-35.60446534649934
 30
0.0
 10
289.4851988225608
 20
-35.78409951811887
 30
0.0
 10
288.330444766811
 20
-36.06639533765661
 30
0.0
 10
287.2888714369745
 20
-36.41534562310947
 30
0.0
 10
286.3776825893918
 20
-36.79830125926382
 30
0.0
 10
285.8812250601875
 20
-37.06792115848338
 30
0.0
 10
285.6330033717371
 20
-37.20272726512326
 30
0.0
  0
LWPOLYLINE
  5
12B
330
1F
100
AcDbEntity
  8
0
  6
Continuous
 62
     7
370
    25
100
AcDbPolyline
 90
       50
 70
   128
 43
0.0
 10
285.6330033717
 20
-52.717002691
 10
286.3066003873
 20
-52.3750623061
 10
287.0504116751
 20
-52.0856554682
 10
287.8522238744
 20
-51.8535342294
 10
288.6988712509
 20
-51.682510014
 10
289.5764518782
 20
-51.575391035
 10
290.4705559066
 20
-51.533936183
 10
291.3665021728
 20
-51.5588261455
 10
292.2495792637
 20
-51.6496522301
 10
293.105287078
 20
-51.8049230749
 10
293.919574917
 20
-52.022089137
 10
294.6790721969
 20
-52.2975845556
 10
295.3713079933
 20
-52.6268857036
 10
295.9849158138
 20
-53.0045854653
 10
296.5098202346
 20
-53.4244820209
 10
296.9374023399
 20
-53.8796806806
 10
297.2606412433
 20
-54.3627070952
 10
297.4742293708
 20
-54.865629984
 10
297.5746596114
 20
-55.3801913674
 10
297.5602829033
 20
-55.8979421614
 10
297.4313353116
 20
-56.4103809125
 10
297.1899341522
 20
-56.9090933905
 10
296.8400432255
 20
-57.3858907503
 10
296.3874077308
 20
-57.8329439924
 10
295.8394599305
 20
-58.242912515
 10
295.2051971122
 20
-58.6090646462
 10
294.4950338539
 20
-58.9253881782
 10
293.7206310167
 20
-59.1866890874
 10
292.8947042737
 20
-59.3886768199
 10
292.0308153193
 20
-59.5280347429
 10
291.1431491862
 20
-59.6024746031
 10
290.2462813277
 20
-59.6107741001
 10
289.3549382893
 20
-59.5527969563
 10
288.483755899
 20
-59.4294951548
 10
287.6470389477
 20
-59.2428933078
 10
286.8585263044
 20
-58.9960554125
 10
286.1311653251
 20
-58.6930345403
 10
285.4768992569
 20
-58.3388062856
 10
284.9064711304
 20
-57.9391870664
 10
284.4292473599
 20
-57.5007386193
 10
284.0530639465
 20
-57.0306602558
 10
283.7840978112
 20
-56.5366706495
 10
283.6267653708
 20
-56.026881096
 10
283.5836500194
 20
-55.5096623259
 10
283.6554597101
 20
-54.993507057
 10
283.8410153295
 20
-54.4868905445
 10
284.1372700597
 20
-53.9981314175
 10
284.5393594061
 20
-53.5352550875
 10
285.0406810727
 20
-53.105861971
 10
285.6330033717
 20
-52.717002691
  0
LWPOLYLINE
  5
12C
330
1F
100
AcDbEntity
  8
0
  6
Continuous
 62
     7
370
    25
100
AcDbPolyline
 90
       42
 70
   128
 43
0.0
 10
287.0472169341
 20
-53.5334108028
 10
287.6283486133
 20
-53.2457704108
 10
288.2787289766
 20
-53.0127118512
 10
288.9831136596
 20
-52.8396978192
 10
289.7249924823
 20
-52.730783617
 10
290.4869764339
 20
-52.6885221013
 10
291.2512052565
 20
-52.7139038461
 10
291.999766074
 20
-52.8063339249
 10
292.7151132555
 20
-52.9636458548
 10
293.3804796693
 20
-53.1821523778
 10
293.9802696905
 20
-53.4567318859
 10
294.5004247496
 20
-53.7809484683
 10
294.9287528526
 20
-54.1472027632
 10
295.255214352
 20
-54.5469100801
 10
295.4721572668
 20
-54.9707016185
 10
295.5744966391
 20
-55.4086440638
 10
295.5598337206
 20
-55.8504724163
 10
295.4285121978
 20
-56.2858305939
 10
295.1836101359
 20
-56.7045141699
 10
294.8308678315
 20
-57.0967095561
 10
294.3785532655
 20
-57.4532240252
 10
293.8372683077
 20
-57.76570118
 10
293.2197002189
 20
-58.026816821
 10
292.5403242716
 20
-58.2304506188
 10
291.8150644623
 20
-58.3718295699
 10
291.0609202661
 20
-58.4476398713
 10
290.2955681839
 20
-58.456104594
 10
289.5369474197
 20
-58.3970253319
 10
288.8028394013
 20
-58.2717868529
 10
288.1104509984
 20
-58.0833246409
 10
287.4760112084
 20
-57.8360560903
 10
286.9143907622
 20
-57.5357769663
 10
286.4387535671
 20
-57.1895255572
 10
286.0602481558
 20
-56.8054177025
 10
285.7877463743
 20
-56.3924565648
 10
285.6276354334
 20
-55.960321603
 10
285.5836681979
 20
-55.5191416946
 10
285.6568752225
 20
-55.0792577225
 10
285.8455405966
 20
-54.6509801943
 10
286.1452421637
 20
-54.2443475722
 10
286.5489551731
 20
-53.8688909803
 10
287.0472169341
 20
-53.5334108028
  0
LWPOLYLINE
  5
12D
330
1F
100
AcDbEntity
  8
0
  6
Continuous
 62
     1
370
    25
100
AcDbPolyline
 90
       53
 70
   128
 43
0.0
 10
266.7493012975
 20
30.7230361043
 10
267.5874497467
 20
30.1740759797
 10
268.4351680387
 20
29.4888452049
 10
269.21992359
 20
28.7103044783
 10
269.9388529128
 20
27.8412946108
 10
270.5893327118
 20
26.884986525
 10
271.168989457
 20
25.8448696855
 10
271.6757080436
 20
24.7247393657
 10
272.1076395105
 20
23.5286827999
 10
272.4632077866
 20
22.2610642686
 10
272.7411154419
 20
20.9265091745
 10
272.9403484214
 20
19.5298871642
 10
273.0601797456
 20
18.0762943602
 10
273.100172163
 20
16.5710347649
 10
273.0601797456
 20
15.0196009073
 10
272.9403484214
 20
13.4276538013
 10
272.7411154419
 20
11.8010022892
 10
272.4632077866
 20
10.1455818461
 10
272.1076395105
 20
8.4674329216
 10
271.6757080436
 20
6.7726788991
 10
271.168989457
 20
5.0675037524
 10
270.5893327118
 20
3.3581294804
 10
269.9388529128
 20
1.6507934047
 10
269.21992359
 20
-0.0482745906
 10
268.4351680387
 20
-1.7328747907
 10
267.5874497467
 20
-3.3968602721
 10
266.6798619462
 20
-5.0341593323
 10
265.7157163266
 20
-6.6387976444
 10
264.6985309508
 20
-8.2049200574
 10
263.6320174178
 20
-9.7268119605
 10
262.5200673198
 20
-11.198920135
 10
261.3667380423
 20
-12.6158730179
 10
260.1762379587
 20
-13.9725003018
 10
258.9529110746
 20
-15.2638518009
 10
257.7012211771
 20
-16.4852155136
 10
256.4257355471
 20
-17.6321348162
 10
255.1311082932
 20
-18.7004247244
 10
253.8220633699
 20
-19.6861871643
 10
252.5033773401
 20
-20.5858251957
 10
251.1798619462
 20
-21.3960561368
 10
249.8563465523
 20
-22.113923543
 10
248.5376605225
 20
-22.7368079938
 10
247.2286155992
 20
-23.2624366515
 10
245.9339883453
 20
-23.6888915541
 10
244.6585027152
 20
-24.0146166139
 10
243.4068128178
 20
-24.2384232954
 10
242.1834859337
 20
-24.3594949524
 10
240.9929858501
 20
-24.3773898076
 10
239.8396565725
 20
-24.2920425644
 10
238.7277064746
 20
-24.1037646459
 10
237.6611929416
 20
-23.8132430576
 10
236.6440075658
 20
-23.4215378814
 10
235.6811215903
 20
-22.9308057022
  0
LWPOLYLINE
  5
12E
330
1F
100
AcDbEntity
  8
0
  6
Continuous
 62
     1
370
    25
100
AcDbPolyline
 90
       30
 70
   128
 43
0.0
 10
273.6591710209
 20
16.8824304011
 10
273.6677019763
 20
16.6137584685
 10
273.6677019763
 20
15.0929600884
 10
273.5874137236
 20
13.5286410215
 10
273.4271358957
 20
11.9266206374
 10
273.1874647368
 20
10.2928585574
 10
272.8692918393
 20
8.6334324835
 10
272.4738008272
 20
6.9545155898
 10
272.0024629531
 20
5.2623535574
 10
271.4570316248
 20
3.5632413402
 10
270.8395358828
 20
1.8634997472
 10
270.1522728516
 20
0.1694519288
 10
269.397799195
 20
-1.5126001458
 10
268.5789216045
 20
-3.1763991325
 10
267.6986863585
 20
-4.8157555897
 10
266.76036799
 20
-6.4245710038
 10
265.7674571048
 20
-7.9968604757
 10
264.7236473968
 20
-9.5267749853
 10
263.6328219065
 20
-11.0086231502
 10
262.4990385765
 20
-12.4368923979
 10
261.3265151552
 20
-13.806269473
 10
260.1196135068
 20
-15.1116602027
 10
258.8828233846
 20
-16.348208448
 10
257.6207457291
 20
-17.5113141679
 10
256.3380755521
 20
-18.596650533
 10
255.039584471
 20
-19.6001800206
 10
253.7301029577
 20
-20.5181694351
 10
252.4145023697
 20
-21.3472037956
 10
251.0976768273
 20
-22.0841990398
 10
251.0213340707
 20
-22.1240782585
  0
LWPOLYLINE
  5
12F
330
1F
100
AcDbEntity
  8
0
  6
Continuous
 62
     1
370
    25
100
AcDbPolyline
 90
       31
 70
   128
 43
0.0
 10
274.0285849531
 20
15.4135027097
 10
274.0936493981
 20
14.929574724
 10
274.2136729214
 20
13.5916462594
 10
274.2537379508
 20
12.2015069063
 10
274.2136729214
 20
10.7651094551
 10
274.0936493981
 20
9.28860478
 10
273.8941813398
 20
7.7783155007
 10
273.6161228994
 20
6.2407089079
 10
273.2606647659
 20
4.682369269
 10
272.8293290656
 20
3.1099696336
 10
272.3239628441
 20
1.5302432583
 10
271.7467301573
 20
-0.050045226
 10
271.100102804
 20
-1.6241287814
 10
270.3868497419
 20
-3.1852669405
 10
269.6100252301
 20
-4.72677467
 10
268.7729557505
 20
-6.2420509972
 10
267.8792257629
 20
-7.7246072761
 10
266.9326623566
 20
-9.1680949732
 10
265.9373188612
 20
-10.5663328526
 10
264.8974574904
 20
-11.9133334451
 10
263.8175310903
 20
-13.2033286871
 10
262.7021640715
 20
-14.4307946212
 10
261.5561326069
 20
-15.5904750497
 10
260.384344179
 20
-16.6774040431
 10
259.1918165658
 20
-17.6869272044
 10
257.9836563537
 20
-18.6147216005
 10
256.7650370702
 20
-19.4568142734
 10
255.5411770301
 20
-20.2095992529
 10
254.3173169899
 20
-20.8698529983
 10
253.0986977064
 20
-21.4347482016
 10
252.9099834708
 20
-21.5138717826
  0
LWPOLYLINE
  5
130
330
1F
100
AcDbEntity
  8
0
  6
Continuous
 62
     1
370
    25
100
AcDbPolyline
 90
       37
 70
   128
 43
0.0
 10
273.5795271495
 20
18.4668062419
 10
273.6282931202
 20
18.3486669296
 10
274.0230384792
 20
17.2487396762
 10
274.3409262583
 20
16.0772200135
 10
274.5805664152
 20
14.8392306988
 10
274.7409110645
 20
13.5401851445
 10
274.8212590599
 20
12.1857637461
 10
274.8212590599
 20
10.781889044
 10
274.7409110645
 20
9.3346998249
 10
274.5805664152
 20
7.8505242791
 10
274.3409262583
 20
6.3358523285
 10
274.0230384792
 20
4.7973072484
 10
273.6282931202
 20
3.2416167048
 10
273.1584163025
 20
1.6755833366
 10
272.6154626777
 20
0.1060550094
 10
272.0018064439
 20
-1.4601051289
 10
271.3201309638
 20
-3.0160486584
 10
270.5734170306
 20
-4.554971834
 10
269.7649298345
 20
-6.0701453363
 10
268.8982046843
 20
-7.5549436969
 10
267.9770315485
 20
-9.0028742705
 10
267.0054384828
 20
-10.4076056251
 10
265.9876740166
 20
-11.7629952278
 10
264.9281885748
 20
-13.0631163048
 10
263.8316150178
 20
-14.3022837575
 10
262.7027483827
 20
-15.4750790218
 10
261.5465249161
 20
-16.5763737625
 10
260.3680004889
 20
-17.6013522978
 10
259.1723284887
 20
-18.5455326575
 10
257.9647372849
 20
-19.404786181
 10
256.7505073666
 20
-20.1753555713
 10
255.5349482522
 20
-20.8538713246
 10
254.3233752725
 20
-21.437366464
 10
253.1210863278
 20
-21.9232895139
 10
251.9333387218
 20
-22.3095156563
 10
250.7653261727
 20
-22.5943560226
 10
249.7814437569
 20
-22.7571500183
  0
ENDSEC
  0
SECTION
  2
OBJECTS
  0
DICTIONARY
  5
C
330
0
100
AcDbDictionary
281
     1
  3
ACAD_GROUP
350
D
  3
ACAD_LAYOUT
350
1A
  3
ACAD_MLINESTYLE
350
17
  3
ACAD_PLOTSETTINGS
350
19
  3
ACAD_PLOTSTYLENAME
350
E
  3
ACAD_SCALELIST
350
47
  3
DWGPROPS
350
131
  0
DICTIONARY
  5
D
102
{ACAD_REACTORS
330
C
102
}
330
C
100
AcDbDictionary
281
     1
  0
DICTIONARY
  5
1A
102
{ACAD_REACTORS
330
C
102
}
330
C
100
AcDbDictionary
281
     1
  3
Layout1
350
1E
  3
Layout2
350
26
  3
Model
350
22
  0
DICTIONARY
  5
17
102
{ACAD_REACTORS
330
C
102
}
330
C
100
AcDbDictionary
281
     1
  3
Standard
350
18
  0
DICTIONARY
  5
19
102
{ACAD_REACTORS
330
C
102
}
330
C
100
AcDbDictionary
281
     1
  0
ACDBDICTIONARYWDFLT
  5
E
102
{ACAD_REACTORS
330
C
102
}
330
C
100
AcDbDictionary
281
     1
  3
Normal
350
F
100
AcDbDictionaryWithDefault
340
F
  0
DICTIONARY
  5
47
102
{ACAD_REACTORS
330
C
102
}
330
C
100
AcDbDictionary
281
     1
  3
A0
350
48
  3
A1
350
49
  3
A2
350
4A
  3
A3
350
4B
  3
A4
350
4C
  3
A5
350
4D
  3
A6
350
4E
  3
A7
350
4F
  3
A8
350
50
  3
A9
350
51
  3
B0
350
52
  3
B1
350
53
  3
B2
350
54
  3
B3
350
55
  3
B4
350
56
  3
B5
350
57
  3
B6
350
58
  3
B7
350
59
  3
B8
350
5A
  3
B9
350
5B
  3
C0
350
5C
  3
C1
350
5D
  3
C2
350
5E
  3
C3
350
5F
  3
C4
350
60
  3
C5
350
61
  3
C6
350
62
  3
C7
350
63
  3
C8
350
64
  3
C9
350
65
  3
D0
350
66
  3
D1
350
67
  3
D2
350
68
  0
XRECORD
  5
131
102
{ACAD_REACTORS
330
C
102
}
330
C
100
AcDbXrecord
280
     1
  1
DWGPROPS COOKIE
  2

  3

  4

  6

  7

  8
b.kav
  9

300
=
301
=
302
=
303
=
304
=
305
=
306
=
307
=
308
=
309
=
 40
0.0
 41
2460346.54571963
 42
2460346.545719815
  1

 90
        0
  0
LAYOUT
  5
1E
102
{ACAD_REACTORS
330
1A
102
}
330
1A
100
AcDbPlotSettings
  1

  2
none_device
  4

  6

 40
0.0
 41
0.0
 42
0.0
 43
0.0
 44
0.0
 45
0.0
 46
0.0
 47
0.0
 48
0.0
 49
0.0
140
0.0
141
0.0
142
1.0
143
1.0
 70
   688
 72
     1
 73
     0
 74
     5
  7

 75
    16
147
1.0
148
0.0
149
0.0
100
AcDbLayout
  1
Layout1
 70
     1
 71
     1
 10
0.0
 20
0.0
 11
420.0
 21
297.0
 12
0.0
 22
0.0
 32
0.0
 14
1.0000000000E+20
 24
1.0000000000E+20
 34
1.0000000000E+20
 15
-1.0000000000E+20
 25
-1.0000000000E+20
 35
-1.0000000000E+20
146
0.0
 13
0.0
 23
0.0
 33
0.0
 16
1.0
 26
0.0
 36
0.0
 17
0.0
 27
1.0
 37
0.0
 76
     0
330
1B
  0
LAYOUT
  5
26
102
{ACAD_REACTORS
330
1A
102
}
330
1A
100
AcDbPlotSettings
  1

  2
none_device
  4

  6

 40
0.0
 41
0.0
 42
0.0
 43
0.0
 44
0.0
 45
0.0
 46
0.0
 47
0.0
 48
0.0
 49
0.0
140
0.0
141
0.0
142
1.0
143
1.0
 70
   688
 72
     1
 73
     0
 74
     5
  7

 75
    16
147
1.0
148
0.0
149
0.0
100
AcDbLayout
  1
Layout2
 70
     1
 71
     2
 10
0.0
 20
0.0
 11
0.0
 21
0.0
 12
0.0
 22
0.0
 32
0.0
 14
0.0
 24
0.0
 34
0.0
 15
0.0
 25
0.0
 35
0.0
146
0.0
 13
0.0
 23
0.0
 33
0.0
 16
1.0
 26
0.0
 36
0.0
 17
0.0
 27
1.0
 37
0.0
 76
     0
330
23
  0
LAYOUT
  5
22
102
{ACAD_REACTORS
330
1A
102
}
330
1A
100
AcDbPlotSettings
  1

  2
none_device
  4
Letter_(8.50_x_11.00_Inches)
  6

 40
6.35
 41
6.35
 42
6.35000508
 43
6.35000508
 44
215.9
 45
279.4
 46
0.0
 47
0.0
 48
0.0
 49
0.0
140
0.0
141
0.0
142
1.0
143
1.0
 70
  1712
 72
     1
 73
     0
 74
     0
  7

 75
     0
147
1.0
148
0.0
149
0.0
100
AcDbLayout
  1
Model
 70
     1
 71
     0
 10
0.0
 20
0.0
 11
279.4
 21
215.9
 12
0.0
 22
0.0
 32
0.0
 14
0.0
 24
0.0
 34
0.0
 15
279.4
 25
215.9
 35
0.0
146
0.0
 13
0.0
 23
0.0
 33
0.0
 16
1.0
 26
0.0
 36
0.0
 17
0.0
 27
1.0
 37
0.0
 76
     0
330
1F
331
29
  0
MLINESTYLE
  5
18
102
{ACAD_REACTORS
330
17
102
}
330
17
100
AcDbMlineStyle
  2
Standard
 70
     0
  3

 62
   256
 51
90.0
 52
90.0
 71
     2
 49
0.5
 62
   256
  6
BYLAYER
 49
-0.5
 62
   256
  6
BYLAYER
  0
ACDBPLACEHOLDER
  5
F
102
{ACAD_REACTORS
330
E
102
}
330
E
  0
SCALE
  5
48
102
{ACAD_REACTORS
330
47
102
}
330
47
100
AcDbScale
 70
     0
300
1:1
140
1.0
141
1.0
290
     1
  0
SCALE
  5
49
102
{ACAD_REACTORS
330
47
102
}
330
47
100
AcDbScale
 70
     0
300
1:2
140
1.0
141
2.0
290
     0
  0
SCALE
  5
4A
102
{ACAD_REACTORS
330
47
102
}
330
47
100
AcDbScale
 70
     0
300
1:4
140
1.0
141
4.0
290
     0
  0
SCALE
  5
4B
102
{ACAD_REACTORS
330
47
102
}
330
47
100
AcDbScale
 70
     0
300
1:5
140
1.0
141
5.0
290
     0
  0
SCALE
  5
4C
102
{ACAD_REACTORS
330
47
102
}
330
47
100
AcDbScale
 70
     0
300
1:8
140
1.0
141
8.0
290
     0
  0
SCALE
  5
4D
102
{ACAD_REACTORS
330
47
102
}
330
47
100
AcDbScale
 70
     0
300
1:10
140
1.0
141
10.0
290
     0
  0
SCALE
  5
4E
102
{ACAD_REACTORS
330
47
102
}
330
47
100
AcDbScale
 70
     0
300
1:16
140
1.0
141
16.0
290
     0
  0
SCALE
  5
4F
102
{ACAD_REACTORS
330
47
102
}
330
47
100
AcDbScale
 70
     0
300
1:20
140
1.0
141
20.0
290
     0
  0
SCALE
  5
50
102
{ACAD_REACTORS
330
47
102
}
330
47
100
AcDbScale
 70
     0
300
1:30
140
1.0
141
30.0
290
     0
  0
SCALE
  5
51
102
{ACAD_REACTORS
330
47
102
}
330
47
100
AcDbScale
 70
     0
300
1:40
140
1.0
141
40.0
290
     0
  0
SCALE
  5
52
102
{ACAD_REACTORS
330
47
102
}
330
47
100
AcDbScale
 70
     0
300
1:50
140
1.0
141
50.0
290
     0
  0
SCALE
  5
53
102
{ACAD_REACTORS
330
47
102
}
330
47
100
AcDbScale
 70
     0
300
1:100
140
1.0
141
100.0
290
     0
  0
SCALE
  5
54
102
{ACAD_REACTORS
330
47
102
}
330
47
100
AcDbScale
 70
     0
300
2:1
140
2.0
141
1.0
290
     0
  0
SCALE
  5
55
102
{ACAD_REACTORS
330
47
102
}
330
47
100
AcDbScale
 70
     0
300
4:1
140
4.0
141
1.0
290
     0
  0
SCALE
  5
56
102
{ACAD_REACTORS
330
47
102
}
330
47
100
AcDbScale
 70
     0
300
8:1
140
8.0
141
1.0
290
     0
  0
SCALE
  5
57
102
{ACAD_REACTORS
330
47
102
}
330
47
100
AcDbScale
 70
     0
300
10:1
140
10.0
141
1.0
290
     0
  0
SCALE
  5
58
102
{ACAD_REACTORS
330
47
102
}
330
47
100
AcDbScale
 70
     0
300
100:1
140
100.0
141
1.0
290
     0
  0
SCALE
  5
59
102
{ACAD_REACTORS
330
47
102
}
330
47
100
AcDbScale
 70
     0
300
1/128" = 1'-0"
140
0.0078125
141
12.0
290
     0
  0
SCALE
  5
5A
102
{ACAD_REACTORS
330
47
102
}
330
47
100
AcDbScale
 70
     0
300
1/64" = 1'-0"
140
0.015625
141
12.0
290
     0
  0
SCALE
  5
5B
102
{ACAD_REACTORS
330
47
102
}
330
47
100
AcDbScale
 70
     0
300
1/32" = 1'-0"
140
0.03125
141
12.0
290
     0
  0
SCALE
  5
5C
102
{ACAD_REACTORS
330
47
102
}
330
47
100
AcDbScale
 70
     0
300
1/16" = 1'-0"
140
0.0625
141
12.0
290
     0
  0
SCALE
  5
5D
102
{ACAD_REACTORS
330
47
102
}
330
47
100
AcDbScale
 70
     0
300
3/32" = 1'-0"
140
0.09375
141
12.0
290
     0
  0
SCALE
  5
5E
102
{ACAD_REACTORS
330
47
102
}
330
47
100
AcDbScale
 70
     0
300
1/8" = 1'-0"
140
0.125
141
12.0
290
     0
  0
SCALE
  5
5F
102
{ACAD_REACTORS
330
47
102
}
330
47
100
AcDbScale
 70
     0
300
3/16" = 1'-0"
140
0.1875
141
12.0
290
     0
  0
SCALE
  5
60
102
{ACAD_REACTORS
330
47
102
}
330
47
100
AcDbScale
 70
     0
300
1/4" = 1'-0"
140
0.25
141
12.0
290
     0
  0
SCALE
  5
61
102
{ACAD_REACTORS
330
47
102
}
330
47
100
AcDbScale
 70
     0
300
3/8" = 1'-0"
140
0.375
141
12.0
290
     0
  0
SCALE
  5
62
102
{ACAD_REACTORS
330
47
102
}
330
47
100
AcDbScale
 70
     0
300
1/2" = 1'-0"
140
0.5
141
12.0
290
     0
  0
SCALE
  5
63
102
{ACAD_REACTORS
330
47
102
}
330
47
100
AcDbScale
 70
     0
300
3/4" = 1'-0"
140
0.75
141
12.0
290
     0
  0
SCALE
  5
64
102
{ACAD_REACTORS
330
47
102
}
330
47
100
AcDbScale
 70
     0
300
1" = 1'-0"
140
1.0
141
12.0
290
     0
  0
SCALE
  5
65
102
{ACAD_REACTORS
330
47
102
}
330
47
100
AcDbScale
 70
     0
300
1-1/2" = 1'-0"
140
1.5
141
12.0
290
     0
  0
SCALE
  5
66
102
{ACAD_REACTORS
330
47
102
}
330
47
100
AcDbScale
 70
     0
300
3" = 1'-0"
140
3.0
141
12.0
290
     0
  0
SCALE
  5
67
102
{ACAD_REACTORS
330
47
102
}
330
47
100
AcDbScale
 70
     0
300
6" = 1'-0"
140
6.0
141
12.0
290
     0
  0
SCALE
  5
68
102
{ACAD_REACTORS
330
47
102
}
330
47
100
AcDbScale
 70
     0
300
1'-0" = 1'-0"
140
12.0
141
12.0
290
     0
  0
ENDSEC
  0
EOF
